» » »

Bon Jovi, Thank You For Loving Me Tabs (ver.4)

Artists:  A B C D E F G H I J K L M N O P Q R S T U V W X Y Z # 

Thank You For Loving Me Tabs (ver.4)

Bon Jovi Tabs
Rating:
0/5 (0 votes)
Thank You For Loving Me lessons Tabs too difficult? Try these video lessons and learn fast
                yoz.
You can either play the chords or the solo part of the song. This is a great
song. One of my favourite from bon jovi. Please correct me if there’re any
problems. 
-----------------------------------------------------------------------------
Artist Bon Jovi

Tuning: Standard - EADGBe

Intro - solo

e--5-/-7\5--------------------5-/-7\5---------------------|
B------------5-/-7-\-5-----------------5-/-7-\-5----------|
G-----------------------7-------------------------7-/9----|
D---------------------------------------------------------|
A---------------------------------------------------------|
E---------------------------------------------------------|


VERSE 1:

 G					   D	
It's hard for me to say the things I want to say sometimes 
    G 						D
There's no one here but you and me and that broken old street light            
           Bm	           G              A  
 Lock the doors we'll leave the world outside 
e|-------------------------------------------------------------------------|
B|------------------------------------------------2-2h3--5-----------------|
G|-------------------------------------------------------------------------|
D|-------------------------------------------------------------------------|
A|-------------------------------------------------------------------------|
E|-------------------------------------------------------------------------|

D		    G			A
All I've got to give to you are these five words tonight  


Chorus:
          D                       G
   Thank you           for loving me
e|-----------------------------------------------------------------------|
B|---------------7----------------------7--------------------------------|
G|-----------------7----------------------7------------------------------|
D|-----------------------------------------------------------------------|
A|-----------------------------------------------------------------------|
E|-----------------------------------------------------------------------|

                A                     D
  For being my eyes              When I couldn't see
e|-------------------------------------------------------------|
B|-------------------2-2h3--5----------------------------------|
G|-------------------------------------------------------------|
D|-------------------------------------------------------------|
A|-------------------------------------------------------------|
E|-------------------------------------------------------------| 

            Bm                                   A
For parting my lips           when I couldn’t breathe
e|-----------------------------------------------------------0--------------|
B|------------------7-------------------------------------------------------|
G|--------------------7------------------------------------2----------------|
D|-------------------------------------------------------2------------------|
A|-----------------------------------------------------0--------------------|
E|--------------------------------------------------------------------------|

      D        G     D 
Thank you for loving me
e|---------------------------------------------------------------------------|
B|------------------------2—2h3--5------------------------------------------|
G|---------------------------------------------------------------------------|
D|---------------------------------------------------------------------------|
A|---------------------------------------------------------------------------|
E|---------------------------------------------------------------------------|

      D        G     A
Thank you for loving me  



VERSE 2: (same as Verse 1)
  G 				D
I never knew I had a dream until that dream was you 
 G 				     D	
When I look into your eyes the sky's a different blue 
          A
Cross my heart I wear no disguise
e|-------------------------------------------------------------|
B|------------------------------------2-2h3--5-----------------|
G|-------------------------------------------------------------|
D|-------------------------------------------------------------|
A|-------------------------------------------------------------|
E|-------------------------------------------------------------|

D                  G            A
If I tried, you'd make believe that you believed my lies  


REPEAT CHORUS



BRIDGE:

G
You pick me up when I fall down 
A
You ring the bell before they count me out 
E         			   F# 	     G
 If I was drowning you would part the sea 
C                           D
And risk your own life to rescue me  
 A
Yeah yeah yeah yeah yeah……


SOLO  
e----------------------------------------------------------------------|
B--7h-5--7-h-5/-7------------------------14h-15-17--19h20-19-17--19----|
G---------------------7-h-9--------------------------------------------|
D---------------------------9-----9\7----------------------------------|
A----------------------------------------------------------------------|
E----------------------------------------------------------------------|



VERSE 3:
          Bm           G              A
Lock the doors we'll leave the world outside 
e|---------------------------------------------------------------------------|
B|----------------------------------------------2—2h3--5---------------------|
G|---------------------------------------------------------------------------|
D|---------------------------------------------------------------------------|
A|---------------------------------------------------------------------------|
E|---------------------------------------------------------------------------|

D                       G            A             C
All I've got to give to you are these five words tonight  


REPEAT CHORUS:  
Thank you for loving me 
For being my eyes when I couldn't see 
For parting my lips when I couldn't breathe 
Thank you for loving me 
When I couldn't fly oh, you gave me wings 
You parted my lips 
When I couldn't breathe 
Thank you for loving me
Thank you for loving me
Thank you for loving me
Oh For loving me


Ending Solo (2 times)                       

e--5-/-7-\-5--------------5-/-7-5--------------------------
B------------5-/-7-\-5------------5-/-7-\-5----------------
G-----------------------7-------------------7-/9-----------
D----------------------------------------------------------
A----------------------------------------------------------
E----------------------------------------------------------

End on D  (xx0232)

| /  slide up
| \  slide down
| h  hammer-on
| p  pull-off
| x  Mute note
====================================================================
            

comments powered by Disqus
↑ Back to top | Bon Jovi Tabs for Thank You For Loving Me. Lyrics for acoustic guitar and electric guitar. Tablatures and chords are parodies/interpretations of the original songs. You may use it for private study, scholarship, research or language learning purposes only