>
 >
Summertime

Summertime Guitar Tabs

Bon Jovi - Summertime chords, tabs, tablatures, lyrics

Guitar lessons | Add/correct | Request | Top 50 tabs Artists:  A B C D E F G H I J K L M N O P Q R S T U V W X Y Z 0-9

Summertime Guitar Tabs – Bon Jovi

CD, Sheet music, Poster

Do you like Summertime? Share with your friends now
ChordsChords v2Chords v3TabsUkulele
Intro:
E------------------------------|
B------------------------------|
G------------------7-7---------|
D---5-5------------7-7---------|
A---5-5------------5-5---------|
E---3-3------------------------|

E------------------------------|
B------------------------------|
G---9-9------------5-5---------|
D---9-9------------5-5---------|
A---7-7------------3-3---------|
E------------------------------|
repeat 2x


Chorus:
E------------------------------|
B------------------------------|
G------------------7-7---------|
D---5-5------------7-7---------|
A---5-5------------5-5---------|
E---3-3------------------------|
feels something like summertime

E------------------------------|
B------------------------------|
G---9-9------------5-5---------|
D---9-9------------5-5---------|
A---7-7------------3-3---------|
E------------------------------|
tough down and nothin' but time

E------------------------------|
B------------------------------|
G------------------7-7---------|
D---5-5------------7-7---------|
A---5-5------------5-5---------|
E---3-3------------------------|
radio is on and your by my side

E------------------------------|
B------------------------------|
G---9--------------------------|
D---9--------------------------|
A---7---break------------------|
E------------------------------|
feels something like summertime


Solo
E----------------------------------------------------|
B---------8--------8/10*-10*-10*-------8--8-8-5-7----|
G---4-5-7----4-5-7---------------4-5-7------------5--|
D----------------------------------------------------|
A----------------------------------------------------|
E----------------------------------------------------|


Verse1
E------------------------------|
B------------------------------|
G------------------7-7-7-7-----|
D---5-5-5-5--------7-7-7-7-----|
A---5-5-5-5--------5-5-5-5-----|
E---3-3-3-3--------------------|
these days life goes like this

E------------------------------|
B------------------------------|
G------------------5-5-5-5-----|
D---2-2-2-2--------5-5-5-5-----|
A---2-2-2-2--------3-3-3-3-----|
E---0-0-0-0--------------------|
wake up take it off some list

E------------------------------|
B------------------------------|
G------------------7-7-7-7-----|
D---5-5-5-5--------7-7-7-7-----|
A---5-5-5-5--------5-5-5-5-----|
E---3-3-3-3--------------------|
gotta be a little something more than like this

E------------------------------|
B------------------------------|
G------------------5-5-5-5-----|
D---2-2-2-2--------5-5-5-5-----|
A---2-2-2-2--------3-3-3-3-----|
E---0-0-0-0--------------------|
in the bottom of my coffee cup

E------------------------------|
B------------------------------|
G------------------7-7-7-7-----|
D---5-5-5-5--------7-7-7-7-----|
A---5-5-5-5--------5-5-5-5-----|
E---3-3-3-3--------------------|
i keep up false call in the back of my mind

E------------------------------|
B------------------------------|
G------------------5-5-5-5-----|
D---2-2-2-2--------5-5-5-5-----|
A---2-2-2-2--------3-3-3-3-----|
E---0-0-0-0--------------------|
white sand sunshine

E------------------------------|
B------------------------------|
G------------------7-7-7-7-----|
D---5-5-5-5--------7-7-7-7-----|
A---5-5-5-5--------5-5-5-5-----|
E---3-3-3-3--------------------|
and you shinin' like a brand new diamond

E------------------------------|
B------------------------------|
G------------------5-5-5-5-----|
D---2-2-2-2--------5-5-5-5-----|
A---2-2-2-2--------3-3-3-3-----|
E---0-0-0-0--------------------|
that's keeping me from giving up

E------------------------------|
B------------------------------|
G---7-7-7-7-7-7-7-7------------|
D---7-7-7-7-7-7-7-7------------|
A---5-5-5-5-5-5-5-5------------|
E------------------------------|
thinkin' that i had enough

E------------------------------|
B------------------------------|
G---5--------------------------|
D---5--------------------------|
A---3--break-------------------|
E------------------------------|
you make me.......

Chorus:
E------------------------------|
B------------------------------|
G------------------7-7-7-7-----|
D---5-5-5-5--------7-7-7-7-----|
A---5-5-5-5--------5-5-5-5-----|
E---3-3-3-3--------------------|
feels something like summertime

E------------------------------|
B------------------------------|
G------------------5-5-5-5-----|
D---2-2-2-2--------5-5-5-5-----|
A---2-2-2-2--------3-3-3-3-----|
E---0-0-0-0--------------------|
tough down and nothin' but time

E------------------------------|
B------------------------------|
G------------------7-7-7-7-----|
D---5-5-5-5--------7-7-7-7-----|
A---5-5-5-5--------5-5-5-5-----|
E---3-3-3-3--------------------|
radio is on and your by my side

E------------------------------|
B------------------------------|
G------------------5-5-5-5-----|
D---2-2-2-2--------5-5-5-5-----|
A---2-2-2-2--------3-3-3-3-----|
E---0-0-0-0--------------------|
feels something like summertime

E------------------------------|
B------------------------------|
G------------------7-7-7-7-----|
D---5-5-5-5--------7-7-7-7-----|
A---5-5-5-5--------5-5-5-5-----|
E---3-3-3-3--------------------|
and that first romance and that first blown kiss

E------------------------------|
B------------------------------|
G------------------5-5-5-5-----|
D---2-2-2-2--------5-5-5-5-----|
A---2-2-2-2--------3-3-3-3-----|
E---0-0-0-0--------------------|
bearing nothin' baby better than this

E------------------------------|
B------------------------------|
G------------------7-7-7-7-----|
D---5-5-5-5--------7-7-7-7-----|
A---5-5-5-5--------5-5-5-5-----|
E---3-3-3-3--------------------|
and its like a beach blanket and a bottle of wine

E------------------------------|
B------------------------------|
G------------------5-5-5-5-----|
D---2-2-2-2--------5-5-5-5-----|
A---2-2-2-2--------3-3-3-3-----|
E---0-0-0-0--------------------|
feels something like summertime


Solo
E----------------------------------------------------|
B---------8--------8/10*-10*-10*-------8--8-8-5-7----|
G---4-5-7----4-5-7---------------4-5-7------------5--|
D----------------------------------------------------|
A----------------------------------------------------|
E----------------------------------------------------|

Verse2
E------------------------------|
B------------------------------|
G------------------7-7-7-7-----|
D---5-5-5-5--------7-7-7-7-----|
A---5-5-5-5--------5-5-5-5-----|
E---3-3-3-3--------------------|
i was a home beast with a cool tan

E------------------------------|
B------------------------------|
G------------------5-5-5-5-----|
D---2-2-2-2--------5-5-5-5-----|
A---2-2-2-2--------3-3-3-3-----|
E---0-0-0-0--------------------|
and half mop out in the back of my hand

E------------------------------|
B------------------------------|
G------------------7-7-7-7-----|
D---5-5-5-5--------7-7-7-7-----|
A---5-5-5-5--------5-5-5-5-----|
E---3-3-3-3--------------------|
when i was laughing i was making plants

E------------------------------|
B------------------------------|
G------------------------------|
D---2-2-2-2-2-2-2-2------------|
A---2-2-2-2-2-2-2-2------------|
E---0-0-0-0-0-0-0-0------------|
but i ddnt laughed when i found you

E------------------------------|
B------------------------------|
G---7-7-7-7-7-7-7-7------------|
D---7-7-7-7-7-7-7-7------------|
A---5-5-5-5-5-5-5-5------------|
E------------------------------|
there's a heaven baby all to prove

E------------------------------|
B------------------------------|
G---5--------------------------|
D---5--------------------------|
A---3--break-------------------|
E------------------------------|
you make me


Chorus:
E------------------------------|
B------------------------------|
G------------------7-7-7-7-----|
D---5-5-5-5--------7-7-7-7-----|
A---5-5-5-5--------5-5-5-5-----|
E---3-3-3-3--------------------|
feels something like summertime

E------------------------------|
B------------------------------|
G------------------5-5-5-5-----|
D---2-2-2-2--------5-5-5-5-----|
A---2-2-2-2--------3-3-3-3-----|
E---0-0-0-0--------------------|
tough down and nothin' but time

E------------------------------|
B------------------------------|
G------------------7-7-7-7-----|
D---5-5-5-5--------7-7-7-7-----|
A---5-5-5-5--------5-5-5-5-----|
E---3-3-3-3--------------------|
radio is on and your by my side

E------------------------------|
B------------------------------|
G------------------5-5-5-5-----|
D---2-2-2-2--------5-5-5-5-----|
A---2-2-2-2--------3-3-3-3-----|
E---0-0-0-0--------------------|
feels something like summertime

E------------------------------|
B------------------------------|
G------------------7-7-7-7-----|
D---5-5-5-5--------7-7-7-7-----|
A---5-5-5-5--------5-5-5-5-----|
E---3-3-3-3--------------------|
and that first romance and that first blown kiss

E------------------------------|
B------------------------------|
G------------------5-5-5-5-----|
D---2-2-2-2--------5-5-5-5-----|
A---2-2-2-2--------3-3-3-3-----|
E---0-0-0-0--------------------|
bearing nothin' baby better than this

E------------------------------|
B------------------------------|
G------------------7-7-7-7-----|
D---5-5-5-5--------7-7-7-7-----|
A---5-5-5-5--------5-5-5-5-----|
E---3-3-3-3--------------------|
and its like a beach blanket and a bottle of wine

E------------------------------|
B------------------------------|
G------------------5-5-5-5-----|
D---2-2-2-2--------5-5-5-5-----|
A---2-2-2-2--------3-3-3-3-----|
E---0-0-0-0--------------------|
feels something like summertime

Solo
E----------------------------------------7/8-7-------|
B---------8--------8/10*-10*-10*-------8-------8-----|
G---4-5-7----4-5-7---------------4-5-7---------------|
D----------------------------------------------------|
A----------------------------------------------------|
E----------------------------------------------------|

E---5/7-5-7/8-7---5/7-5------------------------------|
B---------------8-------5-7-8------------------------|
G----------------------------------------------------|
D----------------------------------------------------|
A----------------------------------------------------|
E----------------------------------------------------|

E------------------------------|
B------------------------------|
G------------------7-7-7-7-----|
D---5-5-5-5--------7-7-7-7-----|
A---5-5-5-5--------5-5-5-5-----|
E---3-3-3-3--------------------|
feels something like summertime

E------------------------------|
B------------------------------|
G------------------5-5-5-5-----|
D---2-2-2-2--------5-5-5-5-----|
A---2-2-2-2--------3-3-3-3-----|
E---0-0-0-0--------------------|
tough down and nothin' but time

E------------------------------|
B------------------------------|
G------------------7-7-7-7---5-|
D---5-5-5-5--------7-7-7-7---5-|
A---5-5-5-5--------5-5-5-5---3-|
E---3-3-3-3--------------------|
radio is on for me and my valentine

E------------------------------|
B------------------------------|
G------------------7-7-7-7-----|
D---5-5-5-5--------7-7-7-7-----|
A---5-5-5-5--------5-5-5-5-----|
E---3-3-3-3--------------------|
its like that first romance and that first blown kiss

E------------------------------|
B------------------------------|
G------------------5-5-5-5-----|
D---2-2-2-2--------5-5-5-5-----|
A---2-2-2-2--------3-3-3-3-----|
E---0-0-0-0--------------------|
bearing nothin' baby better than this

E------------------------------|
B------------------------------|
G------------------7-7-7-7-----|
D---5-5-5-5--------7-7-7-7-----|
A---5-5-5-5--------5-5-5-5-----|
E---3-3-3-3--------------------|
and its like a beach blanket and a bottle of wine

E------------------------------|
B------------------------------|
G------------------7-7-7-7-----|
D---5-5-5-5--------7-7-7-7-----|
A---5-5-5-5--------5-5-5-5-----|
E---3-3-3-3--------------------|
feels something like summertime

E------------------------------|
B------------------------------|
G------------------5-5-5-5-----|
D---2-2-2-2--------5-5-5-5-----|
A---2-2-2-2--------3-3-3-3-----|
E---0-0-0-0--------------------|
tough down and nothin' but time

E------------------------------|
B------------------------------|
G------------------7-7-7-7-----|
D---5-5-5-5--------7-7-7-7-----|
A---5-5-5-5--------5-5-5-5-----|
E---3-3-3-3--------------------|
radio is on and your by my side

E------------------------------|
B------------------------------|
G------------------5-5-5-5-----|
D---2-2-2-2--------5-5-5-5-----|
A---2-2-2-2--------3-3-3-3-----|
E---0-0-0-0--------------------|
feels something like summertime


Solo Ending
E----------------------------------------7/8-7-------|
B---------8--------8/10*-10*-10*-------8-------8-----|
G---4-5-7----4-5-7---------------4-5-7---------------|
D----------------------------------------------------|
A----------------------------------------------------|
E----------------------------------------------------|

E---5/7-5-7/8-7---5/7-5------------------------------|
B---------------8-------5-7-8------------------------|
G----------------------------------------------------|
D----------------------------------------------------|
A----------------------------------------------------|
E----------------------------------------------------|





Comments


Popular Bon Jovi tabs & chords
Bells Of Freedom Bass Tabs
In These Arms 2 Chords
Lay Your Hands On Me Chords
She Dont Know Me Chords
Blaze Of GloryIntro Tabs
Born To Be My Baby Tabs
Livin On A Prayer 4 Tabs
The Distance Tabs
We Got It Going On Tabs
Save The World Ukulele


Song lyrics



↑ Back to top | Tablatures and chords are parodies/interpretations of the original songs. You may use it for private study, scholarship, research or language learning purposes only
© 2014 AZChords.com Contact us | Privacy policy | DMCA | Add/correct tabs | Request tabs | Top 50 tabs