» » »

Something To Believe In Tabs (ver.1)

Artists:  A B C D E F G H I J K L M N O P Q R S T U V W X Y Z # 

Something To Believe In Tabs (ver.1)

Bon Jovi
Rating:
0/5 (0 votes)

Hard to play? Try these video lessons and learn fast.
                Love this song, all I can say.


Verse

-3-3------------------------------------|
-3-5------------------------------------|
-x-x------------------------------------|
-4-4------------------------------------|
-5-5------------------------------------|
----------------------------------------|

Kinda hard to describe how Richie strums it, but here is the overal look. If you listen 
the verse you can hear this.

Chorus


-0--3--2--0--0----0-------------------------|
-1--3--3--0--1----1-------------------------|
-0--0--2--0--0----0-------------------------|
-2--0--0--2--2----2-------------------------|
-3--2-----2--3----3-------------------------|
----3-----0---------------------------------|

Rake
---------------------------------------------|
---------------------------------------------|
----12-11-7---9-7----------------------------|
---x--------------7-9------------------------|
--x------------------------------------------|
-x-------------------------------------------|

If i... How can... If I... How can I...
-3------2-----------0-------0---------------------------------|
-3------3-----------0-------1---------------------------------|
-0------2-----------0-------0---------------------------------|
-0------0-----------2-------2---------------------------------|
-2------------------2-------3---------------------------------|
-3------------------0-----------------------------------------|
Solo

-----------------------------------------------|
-----------------------------------------------|
-2b(hold)2b(hold)-----2b(hold)2b(hold)---------|
--------------5v-------------------------------|
-----------------------------------------------|
-----------------------------------------------|

This solo is kinda weird. First off, from what I hear, it has about 2 guitars. I'll put it into one.

Ending solo

----------------------------------------------------16--|b
--------------------------------------------------------|
-14b-12-14vvvv-12-------12-14-14b-12----12----12vv------|
----------------------14-------------14----14-----------|
--------------------------------------------------------|
--------------------------------------------------------|


---------------------------------------------------------|
---------------------------------------------------------|
-------------------------------12-14-14b---14b--12-14----|
-------------------12----12-14------------------------14-|
-------12----12-14----14---------------------------------|
-12-15----15---------------------------------------------|

--------------------------------------------------------|
------------------------------------15b-----------------|
-------12----12-14-14b-14b-12-14b-------14b-12-14-------|
-12-14----14---------------------------------------14---|
--------------------------------------------------------|
--------------------------------------------------------|

-17b---15-14-15---15-14---------------------------------------|
------------------------15-12-15b-----------------------------|
------------------------------------2b(hold bend)--2/4/7/9/12-|
--------------------------------------------------------------|
--------------------------------------------------------------|
--------------------------------------------------------------|

--------------------------------------|
--------------------------------------|
-12-11-12-11---12--16-----------------|
--------------------------------------|
--------------------------------------|
--------------------------------------|


The last parts you might not be able to hear, it pretty close to where they fade out.

Again happy to help.
            
Hard to play? Try these video lessons and learn fast. | Correct




comments powered by Disqus
↑ Back to top | Tablatures and chords are parodies/interpretations of the original songs. You may use it for private study, scholarship, research or language learning purposes only