» » »

Bon Jovi, Say It Isn So Bass tabs (ver.1)

Artists:  A B C D E F G H I J K L M N O P Q R S T U V W X Y Z # 

Say It Isn So Bass tabs (ver.1)

Bon Jovi Tabs
 Rating:
4/5 (4 votes)
Say It Isn	 So lessons Tabs too difficult? Try these video lessons and learn fast
1
                Song- say It Isn’t so
Taber- Adam Fowler(Jami bastard)
Artist- John Bon Jovi
Intro

G|-----------------|
D|-----------------|
A|-----5-5--3-3--3-|
E|3-3--------------|   X2

Verse
G|---------------------|
D|---------------------|
A|-----5-5-------3-3-3-|
E|3-3-------0-0--------|

G|-----------------|
D|-----------------|
A|-----5-5--3-3--3-|
E|3-3--------------|

G|---------------------|
D|---------------------|
A|-----5-5-------3-3-3-|
E|3-3-------0-0--------|

G|-------------------|
D|-------------------|
A|-------------------|
E|5-5--5-5-\8-8--8-8-|

 G|-----------------|
 D|-----------------|
 A|-----5-5--3-3--3-|
 E|3-3--------------|

Second Verse


Chorus
G|----------------|----------------|----------------|
D|----------------|----------------|----------------|
A|----------------|----------------|----------------|
E|3-3-3-3-3-3-3-3-|2-2-2-2-2-2-2-2-|0-0-0-0-0-0-0-0-|

G|----------------|----------------|----------------|
D|--------------5-|----------------|----------------|
A|3-3-3-3-3-3-5---|0-0-0-0-0-0-0-0-|----------------|
E|----------------|----------------|3-3-3-3-3-3-3-3-|

G|----------------|
D|----------------|
A|3-3-3-3-3-3-3-3-|
E|----------------|

verse III

Chorus 

Chorus

Solo by keyboard

G|--------------|
D|--------------|
A|--------------|
E|0--0----0-0-0-| X4
            
Submit corrections

comments powered by Disqus
↑ Back to top | Bon Jovi Bass for Say It Isn So. Lyrics for acoustic guitar and electric guitar. 1 Tablatures and chords are parodies/interpretations of the original songs. You may use it for private study, scholarship, research or language learning purposes only