» » »

Bon Jovi, One Step Closer Bass tabs (ver.1)

Artists:  A B C D E F G H I J K L M N O P Q R S T U V W X Y Z # 

One Step Closer Bass tabs (ver.1)

Bon Jovi Tabs
Rating:
0/5 (0 votes)
One Step Closer lessons Tabs too difficult? Try these video lessons and learn fast
                              Heres the bass to One Step Closer, I put the guitar up earlier today.

 Intro
  Q=96
 4/4
  Gtr I
|---------|---------|---------|-----||
|---------|---------|---------|-----||These first three bars have nothing 
|---------|---------|---------|-----||in because the bass comes in later in 
|---------|---------|---------|-----||the verse


 Verse
|---------|---------|---------|-----|
|---------|---------|---------|-----|
|---------|---------|---------|-----|
|---------|---------|---------|-----|


|---------|---------|---------|-----|
|---------|---------|---------|-----|
|---------|---------|---------|-----|
|---------|---------|---------|-----|


|----------|----------|-----------|------||
|----------|----------|-----------|------||
|-3--------|-5--------|-1------1S=|=3----||
|----------|----------|-----------|------||


 Chorus
|---------------|---------------|---------------|---------------|
|---------------|---------------|---------------|---------------|
|--------3--x-3-|-5--x-5-1--x-1-|--------3--x-3-|-5--x-5-1--x-1-|
|-1--x-1--------|---------------|-1--x-1--------|---------------|


|---------------|---------------|---------------|---------------||
|---------------|---------------|---------------|---------------||
|--------3--x-3-|-5--x-5-1--x-1-|--------3--x-3-|-5--x-5-1--x-1-||
|-1--x-1--------|---------------|-1--x-1--------|---------------||


 Pre-Verse
|---------------|---------------|---------------|---------------||
|---------------|---------------|---------------|---------------||
|--------3--x-3-|-5--x-5-1--x-1-|--------3--x-3-|-5--x-5-1--x-1-||
|-1--x-1--------|---------------|-1--x-1--------|---------------||


 Verse
|---------------|---------------|---------------|---------------|
|---------------|---------------|-------------5-|---------------|
|--------3--x-x-|-5--x-x-1--x-x-|--------3--x---|-5--x-5-1--x-1-|
|-1--x-x--------|---------------|-1--x-x--------|---------------|


|---------------|---------------|---------------|---------------|
|---------------|---------------|---------------|---------------|
|--------3--x-3-|-5--x-5-1--x-1-|--------3--x-3-|-5--x-5-1--1S==|
|-1--x-1--------|---------------|-1--x-1--------|---------------|


|----------|----------|----------|-----------------||
|----------|----------|----------|-----------------||
|-3--------|-5--------|-1--------|-3-3-3-3-3-3-3-3-||
|----------|----------|----------|-----------------||


 Chorus
|---------------|---------------|---------------|---------------|
|---------------|---------------|---------------|---------------|
|--------3--x-3-|-5--x-5-1--x-1-|--------3--x-3-|-5--x-5-1--x-1-|
|-1--x-1--------|---------------|-1--x-1--------|---------------|


|---------------|---------------|---------------|----------------||
|---------------|---------------|---------------|------------1-3-||
|--------3--x-3-|-5--x-5-1--x-1-|--------3--x-3-|-5--x-5-1-1-----||
|-1--x-1--------|---------------|-1--x-1--------|----------------||


 Interlude
|-----------------|-----------3-3-3--|-----------------|---------3-3-1-----|
|-----------------|------------------|-----------------|---------------3-1-|
|-5--x-3-(3)--x-1-|-(1)-1-1-1--------|-5--x-3-(3)--x-1-|-(1)-1-1-----------|
|-----------------|------------------|-----------------|-------------------|


                                        Guitar Solo
|-----------------|-------------------||---------------|---------------|
|-----------------|-------------------||---------------|---------------|
|-5--x-3-(3)--x-1-|-(1)-1-1-1-1-1-1-1-||--------3--x-3-|-5--x-5-1--x-1-|
|-----------------|-------------------||-1--x-1--------|---------------|


|---------------|----------------|---------------|
|---------------|----------------|---------------|
|--------3--x-3-|-5--x-5-1-1-1---|--------3--x-3-|
|-1--x-1--------|--------------3-|-1--x-1--------|


|---------------|---------------|----------------||
|---------------|---------------|----------------||
|-5--x-5-1--x-1-|--------3--x-3-|-5--x-5-1-1-1-1-||
|---------------|-1--x-1--------|----------------||


 Bridge
|----------|----------|----------|--------5-(5)-5-(5)--||
|----------|----------|----------|---------------------||
|-3--------|-5--------|-1--------|-3--(3)--------------||
|----------|----------|----------|---------------------||


 Chorus
|---------|---------|---------|------------|
|---------|---------|---------|------------|
|---------|---------|---------|-----1--x-1-|
|---------|---------|---------|------------|


|---------------|---------------|---------------|---------------|
|---------------|---------------|---------------|---------------|
|--------3--x-3-|-5--x-5-1--x-1-|--------3--x-3-|-5--x-5-1--x-1-|
|-1--x-1--------|---------------|-1--x-1--------|---------------|


|---------------|---------------|---------------|---------------|
|---------------|---------------|---------------|---------------|
|--------3--x-3-|-5--x-5-1--x-1-|--------3--x-3-|-5--x-5-1--x-1-|
|-1--x-1--------|---------------|-1--x-1--------|---------------|


|---------------|---------------|---------------|----------------||
|---------------|---------------|---------------|----------------||
|--------3--x-3-|-5--x-5-1--x-1-|--------3--x-3-|-5--x-5-1-1-1-3-||
|-1--x-1--------|---------------|-1--x-1--------|----------------||


 Outro
|-----------------|-------------------|-----------------|------------|--------*|
|-----------------|-------------------|-----------------|------------|--------*|
|-5--x-3-(3)--x-1-|-(1)-1-1-1-1-------|-5--x-3-(3)--x-1-|-(1)--------|-(1)----*|
|-----------------|-------------5-3-1-|-----------------|------------|--------*|


Tablature Legend
----------------
 h   - hammer-on
 p   - pull-off
 b   - bend
 pb  - pre-bend
 r   - bend release (if no number after the r, then release immediately)
 /\  - slide into or out of (from/to "nowhere")
 s   - legato slide
 S   - shift slide
            

comments powered by Disqus
↑ Back to top | Bon Jovi Bass for One Step Closer. Lyrics for acoustic guitar and electric guitar. Tablatures and chords are parodies/interpretations of the original songs. You may use it for private study, scholarship, research or language learning purposes only