» » »

Lost Highway Tabs (ver.1)

Artists:  A B C D E F G H I J K L M N O P Q R S T U V W X Y Z # 

Lost Highway Tabs (ver.1)

Bon Jovi
Rating:
0/5 (0 votes)

Hard to play? Try these video lessons and learn fast.
                

Intro:
A--2--3--2--0------5---2--3--2--0---------0-    
E-------------3--0----------------3--0--3---
repeat 4x


Verse1:
E----------------------
B----------------------
G----------------------
D--5-5-5-5-5-5-5-5-----
A--5-5-5-5-5-5-5-5-----
E--3-3-3-3-3-3-3-3-----
In my rearview mirror
My life is getting clearer

E----------------------
B----------------------
G----------------------
D--2-2-2-2-2-2-2-2-----
A--2-2-2-2-2-2-2-2-----
E--0-0-0-0-0-0-0-0-----
The sunset sighs and

E----------------------
B----------------------
G--5-5-5-5-5-5-5-5-----
D--5-5-5-5-5-5-5-5-----
A--3-3-3-3-3-3-3-3-----
E----------------------
slowly disappears

E----------------------
B----------------------
G----------------------
D--5-5-5-5-5-5-5-5-----
A--5-5-5-5-5-5-5-5-----
E--3-3-3-3-3-3-3-3-----
These trinkets once were treasure
Life changes like the weather

E----------------------
B----------------------
G----------------------
D--2-2-2-2-2-2-2-2-----
A--2-2-2-2-2-2-2-2-----
E--0-0-0-0-0-0-0-0-----
You grow up, grow old, or you hit the road 

E----------------------
B----------------------
G--5-5-5-5-5-5-5-5-----
D--5-5-5-5-5-5-5-5-----
A--3-3-3-3-3-3-3-3-----
E----------------------
'round here

Bridge:
E----------------------
B----------------------
G--7-7-7-7-7-7-7-7-----
D--7-7-7-7-7-7-7-7-----
A--5-5-5-5-5-5-5-5-----
E----------------------
So I drive

E----------------------
B----------------------
G--5-5-5-5-5-5-5-5-----
D--5-5-5-5-5-5-5-5-----
A--3-3-3-3-3-3-3-3-----
E----------------------
Watching white lines passing by

E----------------------
B----------------------
G--7-7-7-7-7-7-7-7-----
D--7-7-7-7-7-7-7-7-----
A--5-5-5-5-5-5-5-5-----
E----------------------
My plastic dashboard Jesus

E----------------------
B----------------------
G----------------------
D--3-3-3-3-3-3-3-3-----
A--3-3-3-3-3-3-3-3-----
E--1-1-1-1-1-1-1-------
Waiting there to greet us

Chorus:
E-----------------------------
B-----------------------------
G--5-5---------------7-7------
D--5-5---5-5---2-2---7-7------
A--3-3---5-5---2-2---5-5------
E--------3-3---0-0------------
Hey I finally found my way

E-----------------------------
B-----------------------------
G--5-5---------------7-7------
D--5-5---5-5---2-2---7-7------
A--3-3---5-5---2-2---5-5------
E--------3-3---0-0------------
Said goodbye to yesterday

E-----------------------------
B-----------------------------
G--5-5---------------7-7------
D--5-5---5-5---2-2---7-7------
A--3-3---5-5---2-2---5-5------
E--------3-3---0-0------------      
Hit the gas, there ain't no brakes

E-----------------------------
B-----------------------------
G--5-5---------------7-7------
D--5-5---5-5---2-2---7-7------
A--3-3---5-5---2-2---5-5------
E--------3-3---0-0------------ 
on this lost highway

E-----------------------------
B-----------------------------
G--5-5---------------7-7------
D--5-5---5-5---2-2---7-7------
A--3-3---5-5---2-2---5-5------
E--------3-3---0-0------------
Yeah, I'm busting loose, I'm lettin' go

E-----------------------------
B-----------------------------
G--5-5---------------7-7------
D--5-5---5-5---2-2---7-7------
A--3-3---5-5---2-2---5-5------
E--------3-3---0-0------------
Out on this open road

E-----------------------------
B-----------------------------
G--5-5---------------7-7------
D--5-5---5-5---2-2---7-7------
A--3-3---5-5---2-2---5-5------
E--------3-3---0-0------------
It's independence day on this

E-----------------------------
B-----------------------------
G-------5-5-5-5-5-5-5-5-------
D--3-3--5-5-5-5-5-5-5-5-------
A--3-3--3-3-3-3-3-3-3-3-------
E--1-1------------------------
lost highway

A--2--3--2--0------5---2--3--2--0---------0-    
E-------------3--0----------------3--0--3---
Hey hey, hey hey


Verse2
E----------------------
B----------------------
G----------------------
D--5-5-5-5-5-5-5-5-----
A--5-5-5-5-5-5-5-5-----
E--3-3-3-3-3-3-3-3-----
Don't know where I'm going
But I know where I've been

E----------------------
B----------------------
G----------------------
D--2-2-2-2-2-2-2-2-----
A--2-2-2-2-2-2-2-2-----
E--0-0-0-0-0-0-0-0-----
I'm afraid of going back 

E----------------------
B----------------------
G--5-5-5-5-5-5-5-5-----
D--5-5-5-5-5-5-5-5-----
A--3-3-3-3-3-3-3-3-----
E----------------------
again

Bridge:
E----------------------
B----------------------
G--7-7-7-7-7-7-7-7-----
D--7-7-7-7-7-7-7-7-----
A--5-5-5-5-5-5-5-5-----
E----------------------
So I drive

E----------------------
B----------------------
G--5-5-5-5-5-5-5-5-----
D--5-5-5-5-5-5-5-5-----
A--3-3-3-3-3-3-3-3-----
E----------------------
Years and miles are flying by

E----------------------
B----------------------
G--7-7-7-7-7-7-7-7-----
D--7-7-7-7-7-7-7-7-----
A--5-5-5-5-5-5-5-5-----
E----------------------
And waiting there to greet us

E----------------------
B----------------------
G----------------------
D--3-3-3-3-3-3-3-3-----
A--3-3-3-3-3-3-3-3-----
E--1-1-1-1-1-1-1-------
Is my plastic dashboard Jesus

Chorus:
E-----------------------------
B-----------------------------
G--5-5---------------7-7------
D--5-5---5-5---2-2---7-7------
A--3-3---5-5---2-2---5-5------
E--------3-3---0-0------------
Hey I finally found my way

E-----------------------------
B-----------------------------
G--5-5---------------7-7------
D--5-5---5-5---2-2---7-7------
A--3-3---5-5---2-2---5-5------
E--------3-3---0-0------------
Said goodbye to yesterday

E-----------------------------
B-----------------------------
G--5-5---------------7-7------
D--5-5---5-5---2-2---7-7------
A--3-3---5-5---2-2---5-5------
E--------3-3---0-0------------      
Hit the gas, there ain't no brakes

E-----------------------------
B-----------------------------
G--5-5---------------7-7------
D--5-5---5-5---2-2---7-7------
A--3-3---5-5---2-2---5-5------
E--------3-3---0-0------------ 
on this lost highway

E-----------------------------
B-----------------------------
G--5-5---------------7-7------
D--5-5---5-5---2-2---7-7------
A--3-3---5-5---2-2---5-5------
E--------3-3---0-0------------
Yeah, I'm busting loose, I'm lettin' go

E-----------------------------
B-----------------------------
G--5-5---------------7-7------
D--5-5---5-5---2-2---7-7------
A--3-3---5-5---2-2---5-5------
E--------3-3---0-0------------
Out on this open road

E-----------------------------
B-----------------------------
G--5-5---------------7-7------
D--5-5---5-5---2-2---7-7------
A--3-3---5-5---2-2---5-5------
E--------3-3---0-0------------
It's independence day on this

E-----------------------------
B-----------------------------
G-------5-5-5-5-5-5-5-5-------
D--3-3--5-5-5-5-5-5-5-5-------
A--3-3--3-3-3-3-3-3-3-3-------
E--1-1------------------------
lost highway



E----------------------
B----------------------
G----------------------
D--5-5-5-5-5-5-5-5-----
A--5-5-5-5-5-5-5-5-----
E--3-3-3-3-3-3-3-3-----
Oh patron saint of lonely souls

E----------------------
B----------------------
G----------------------
D--5-5-5-5-5-5-5-5-----
A--5-5-5-5-5-5-5-5-----
E--2-2-2-2-2-2-2-2-----
Please tell this boy which way to go

E----------------------
B----------------------
G----------------------
D--5-5-5-5-5-5-5-5-----
A--5-5-5-5-5-5-5-5-----
E--3-3-3-3-3-3-3-3-----
You've got the car, you've got the keys

E----------------------
B----------------------
G--5-5-5-5-5-5-5-5-----
D--5-5-5-5-5-5-5-5-----
A--3-3-3-3-3-3-3-3-----
E----------------------
Farewell to mediocrity

E----------------------
B----------------------
G----------------------
D--2-2-2-2-2-2-2-2-----
A--2-2-2-2-2-2-2-2-----
E--0-0-0-0-0-0-0-0-----
Kicking off to lose control

E----------------------
B----------------------
G--7-7-7-7-7-7-7-7-----
D--7-7-7-7-7-7-7-7-----
A--5-5-5-5-5-5-5-5-----
E----------------------
And turning up the radio

E----------------------
B----------------------
G----------------------
D--5-5-5-5-5-5-5-5-----
A--5-5-5-5-5-5-5-5-----
E--3-3-3-3-3-3-3-3-----
Got just enough religion

E----------------------
B----------------------
G--5-5-5-5-5-5-5-5-----
D--5-5-5-5-5-5-5-5-----
A--3-3-3-3-3-3-3-3-----
E----------------------
And a half a tank of gas

E----------------------
B----------------------
G-------5-5------------
D-------5-5-7-5-5-5-7--
A-------3-2-7-5-5-5-7--
E-----------5-3-2-3-5-- 
Come on

E----------------------
B----------------------
G--7-------------------
D--7-------------------
A--5-------------------
E----------------------
Let's go

Chorus:
E-----------------------------
B-----------------------------
G--5-5---------------7-7------
D--5-5---5-5---2-2---7-7------
A--3-3---5-5---2-2---5-5------
E--------3-3---0-0------------
Hey I finally found my way

E-----------------------------
B-----------------------------
G--5-5---------------7-7------
D--5-5---5-5---2-2---7-7------
A--3-3---5-5---2-2---5-5------
E--------3-3---0-0------------
Said goodbye to yesterday

E-----------------------------
B-----------------------------
G--5-5---------------7-7------
D--5-5---5-5---2-2---7-7------
A--3-3---5-5---2-2---5-5------
E--------3-3---0-0------------      
Hit the gas, there ain't no brakes

E-----------------------------
B-----------------------------
G--5-5---------------7-7------
D--5-5---5-5---2-2---7-7------
A--3-3---5-5---2-2---5-5------
E--------3-3---0-0------------ 
on this lost highway

E-----------------------------
B-----------------------------
G--5-5---------------7-7------
D--5-5---5-5---2-2---7-7------
A--3-3---5-5---2-2---5-5------
E--------3-3---0-0------------
Yeah, I'm busting loose, I'm lettin' go

E-----------------------------
B-----------------------------
G--5-5---------------7-7------
D--5-5---5-5---2-2---7-7------
A--3-3---5-5---2-2---5-5------
E--------3-3---0-0------------
Out on this open road

E-----------------------------
B-----------------------------
G--5-5---------------7-7------
D--5-5---5-5---2-2---7-7------
A--3-3---5-5---2-2---5-5------
E--------3-3---0-0------------
It's independence day on this

E-----------------------------
B-----------------------------
G-------5-5-5-5-5-5-5-5-------
D--3-3--5-5-5-5-5-5-5-5-------
A--3-3--3-3-3-3-3-3-3-3-------
E--1-1------------------------
lost highway

****
Guitar1
E----------------------
B----------------------
G--5-5--------7-7------
D--5-5---2-2--7-7------
A--3-3---2-2--5-5------
E--------0-0-----------
Hey hey

E----------------------
B----------------------
G--5-5--------7-7------
D--5-5---2-2--7-7------
A--3-3---2-2--5-5------
E--------0-0-----------
Hey hey

E----------------------
B----------------------
G--5-5--------7-7------
D--5-5---2-2--7-7------
A--3-3---2-2--5-5------
E--------0-0-----------
Hey hey

E----------------------
B----------------------
G--5-5-----------------
D--5-5---2-2-----------
A--3-3---2-2-----------
E--------0-0-----------
on this lost highway.....

Guitar2
A--2--3--2--0------5---2--3--2--0---------0-    
E-------------3--0----------------3--0--3---

A--2--3--2--0------     
E-------------3--0-


Rock On...
                              Triani-Sesiha
            
Hard to play? Try these video lessons and learn fast. | Correct




comments powered by Disqus
↑ Back to top | Tablatures and chords are parodies/interpretations of the original songs. You may use it for private study, scholarship, research or language learning purposes only