>
 >
Livin On A Prayer 2

Livin On A Prayer 2 Bass Tabs

Bon Jovi - Livin On A Prayer 2 chords, tabs, tablatures, lyrics

Guitar lessons | Add/correct | Request | Top 50 tabs Artists:  A B C D E F G H I J K L M N O P Q R S T U V W X Y Z 0-9

Livin On A Prayer 2 Bass Tabs – Bon Jovi

CD, Sheet music, Poster

Do you like Livin On A Prayer 2? Share with your friends now
Bass TabsBass Tabs v2Bass Tabs v3Drum TabsTabsTabs v2Ukulele
Bon Jovi - Living On a Prayer

   play 16 times                 1st verse
||-------------------------------|||-------------------------------|
||o----------------------------o|||o-------------------------------|
||o-----7-----5------------5--o|||o----7-----5-----------5---------|
||---0-----7-----0--0--7-------|||--0-----7-----0--0--7------------|


|-----------------------------|----------------------------|----------------------|
|-----------------------------|----------------------------|----------------------|
|----7-----5-------------5---|----7-----5-----------5---|----7-----5-----------5--|
|-0-----7-------0--0--7-----|-0-----7-----0--0--7-----|-0-----7-----0--0--7-------|


|--------------------------|--------------------------|----------------------------|
|--------------------------|--------------------------|----------------------------|
|----7-----5-----------5--|----7-----5-----------5-|----7-----5-----------5--------|
|-0-----7-----0--0--7----|-0-----7-----0--0--7---|-0-----7-----0--0--7-------------|

1.                            2.
|-----------------------------||------------------------------|
|--------------5--4--5--4-o||-------------------4--5----------|
|-----7-----5--------------o||-----7-----5--7--------2--------|
|--0-----7------------------||--0-----7-----------------------|

1st Pre-Chorus

|----------------------------|-------------------------|----------------------------------|
|----------------------------|-------------------------|----------------------------------|
|-3--3--3--5--5--5--5--5-|-5--5--5--5--7--7--7-|--3---3---3---5--5---5---5----------------|
|----------------------------|-------------------------|-------------------------------5--|


|--------------------|----------------------------|----------------------|
|--------------------|----------------------------|----------------------|
|-5--7/9--7--7--7-|-3--3--3--5--5--5--5--5-|--5---5---5---5---7---7---5--|
|--------------------|----------------------------|----------------------|


|--------------------------|---------------------------|
|--------------------------|---------------------------|
|-3--------3------------3-|--5--5----5--5---7----------|
|----3--5--------3--5----|-----------------------------|

1st chorus

|-------------------------|---------------------------|--------------------------|
|-------------------------|--------------------2---4-|-5-------------------------|
|----------3----2--3--4-|-5--5--5--5--5--5-------|----5--2--3----2--3-4----------|
|-0--2--3----------------|--------------------------|----------------------------|


|-------------------------------|-------------------------------|
|-------------------------------|---------------------2---4-----|
|-5--5--5--5--5--------------|--5--5--5--5--5--5----------------|
|---------------------0--3--2-|---------------------------------|


|--------------------------|--------------------------------||------------------------------|
|-5-----------------------|---------------------------------||o--------------------------o--|
|----5--2--3----2--3-4-|-3--4--5--5--5--5--5--5--5--||o-----7-----5-----------5-o-----------|
|--------------------------|--------------------------------||---0-----7-----0--0--7--------|


2nd Verse

||-----------------------------|----------------------------|
||o---------------------------|-----------------------------|
||o------7-----5-----------5-|----7-----5-----------5-------|
||----0-----7-----0--0--7----|-0-----7-----0--0--7----------|


|--------------------------|---------------------------|---------------------------|
|--------------------------|---------------------------|---------------------------|
|----7-----5-----------5--|----7-----5-----------5--|----7-----5-----------5-------|
|-0-----7-----0--0--7-----|-0-----7-----0--0--7---|-0-----7-----0--0--7------------|

                           1.
|--------------------------|---------------------------------|
|--------------------------|-----------------------------o---|
|----7-----5-----------5--|-----7-----5/10--9--7--5-o--------|
|-0-----7-----0--0--7----|--0-----7--------------------------|


2.                         2nd pre chorus
|---------------------------|--------------------------------------------|
|---------------------------|--------------------------------------------|
|----7-----5--------0--2--|-3--3--3--5--5--5--5--5-|-5--5--5--5--7--7----|
|-0-----7-----0--3--------|----------------------------------------------|


|-------------------------------|---------------------------|------------------------------|
|-------------------------------|---------------------------|------------------------------|
|-5--5--5--5--7--7-----7--7-|-3--3--3--5--5--5--5----|-5--7/9--7--7--7--7-|-3--3--3--5--5--|
|-------------------------------|-------------------------5-|------------------------------|


|------------------------------|-------------------------|---------------------------|
|------------------------------|-------------------------|---------------------------|
|-3--3--3--5--5----5--5--5-|-5--5--5--5--7--7--5-|-3--------3-----------3------------|
|------------------------------|-------------------------|----3--5-------3--5--------|

         2nd chorus
|-------------------------|-------------------------|-----------------------------|
|-------------------------|-------------------------|---------------------2--4----|
|-5--5----5--5--7------|----------3----2--3--4-|-5--5--5--5--5--5-----------------|
|-------------------------|-0--2--3---------------|-------------------------------|


|----------------------------|-----------------------------|------------------|
|-5--------------------------|-----------------------------|------------------|
|---5--2--3------2--3--4--|-5--5--5--5--5-------------|----------3----2--3/7--|
|----------------------------|----------------x--0--3--2-|-0--2--3------------|


|----------------------------|----------------------------|---------------------|
|----------------------2--4-|-5-------------------------|-----------------------|
|--5--5--5--5--5--5-------|----5--2--3----2--3--4--|-5--5--5--5--5--5-----0--2--|
|----------------------------|---------------------------|----------------------|


|---------------------------|---------------------------------------|
|----------5--------9/10--|-----------------------------------------|
|--3-----------------------|------------7---------------------------|
|--------------------------|----------------------------------------|


Guitar solo
|--------------------------|--------------------------|-------------------------|
|--------------------------|-------------2--2--4--4-|-5-------------------2-----|
|-----------3----3--3--4-|-5--5--5--5-------------|----5--2--3----2--3----------|
|--0--2--3----------------|--------------------------|--------------------------|


|------------------------------|-------------------------|----------------------|
|------------------------------|-------------------------|----------------------|
|-5--5--5--5--5-------------|----------3----2--3--4-|-5--5--5--5--5--5----2--4--|
|----------------x--0--3--2--|-0--2--3---------------|--------------------------|


|-----------|--------------|----------------------------|------------------------------|
|--2-----4-|----5--------|----------------------------|--------------------------------|
|------5---|--2----3--/--|----------------------------|----------------------0--2------|
|----------|--------------|-0--0--0--0--0--0--0--0--|-0--0--0--0--0--0-----------------|

      3rd pre chorus
|----|-----------------------------|-------------------------|-----------------------|
|----|-----------------------------|-------------------------|-----------------------|
|--2-|--3--3--3--5--5--5--5--5-|-5--5--5--5--7--7--5-|-3--3-3--3---------------------|
|----|-----------------------------|-------------------------|-----------------------|


|--------------------|
|--------------------|
|---5--5----5--5-----|
|--------------------|


3rd chorus
||----------------------------|---------------------------|----------------------------|
||o--------------------------|---------------------5--7-|-8----------------------------|
||o-----------6----5--6--7-|-8--8--8--8--8--8-------|----8--5--6----5--6--7------------|
||---3--5--6----------------|---------------------------|------------------------------|


|------------------------------|-------------------------|-----------------------------|
|------------------------------|-------------------------|----------5--5--5--7--7------|
|-8--8--8--8--8-------------|----------6----5--6/10-|-8--8--8--------------------------|
|----------------x--5--6--5--|-3--5--6---------------|---------------------------------|

   play 3times then fade

|---------------------------|-----------------------------------------|
|-8------------------------|--------------------------------------o---|
|----8--5--6----5--6--7-|-8--------8--------8--------8--------o-------|
|--------------------------|----8--8-----8--8-----8--8-----x-5--------|

||        ||
||o    o||      =  REPEAT
||o    o||
||        ||





Comments


Popular Bon Jovi tabs & chords
It's My Life Chords
Knocking On Heavens Door Chords
My Guitar Lies Chords
Hey God Intro Tabs
Its My Life Tabs
One Wild Night 1 Tabs
Runaway Tabs
Wanted 4 Tabs
What Do You Got Intro Tabs
When We Were Beautiful Tabs


Song lyrics



↑ Back to top | Tablatures and chords are parodies/interpretations of the original songs. You may use it for private study, scholarship, research or language learning purposes only
© 2014 AZChords.com Contact us | Privacy policy | DMCA | Add/correct tabs | Request tabs | Top 50 tabs