» » »

Lay Your Hands On Me Tabs (ver.3)

Artists:  A B C D E F G H I J K L M N O P Q R S T U V W X Y Z # 

Lay Your Hands On Me Tabs (ver.3)

Bon Jovi
Rating:
0/5 (0 votes)

Hard to play? Try these video lessons and learn fast.
                Intro- Just make random noises with your guitar, use delay/echo for best results

Main/Verse Riff
|--------------------------------------------------|
|--------------------------------------------------|
|--------------------------------------------------| x6 for verse 1, 
|---7--5--7--7-4-5-5-4-5-5-4-5-5-------------------| x4 for verse 2
|---5--3--5--5-2-3-3-2-3-3-2-3-3---5-5-3-5-3-5-3-0-|
|----------------------------------5-5-3-5-3-5-3-0-|

Bridge 
|--------------------------------------------------|
|--------------------------------------------------|
|--------------------------------------------------|  x2
|--------12-10-12~--12-10-12~----7-5-7~--7-5-7~----|
|--------10-8--10~--10-8--10~----5-3-5~--5-3-5~----|
|---0-0-----------0------------0-------0-----------|

Then
|-----------|
|-----------|
|-----------|
|-----------|
|---3--5----|
|---3--5----|

Chorus
|---------------------------|
|--3-------------------3----|
|--2-------------------2----| x2
|--0----5----3----5----0----|
|--0----5----3----5----0----|
|--0----5----3----5----0----|

Solo
Sorry! Don't know it haha

Solo Background Chords
Pt. 1
|------------------------------------------|
|------------------------------------------|
|------------------------------------------| x2
|-x-x----7-5-7\-----x-x----7-5-7\----------|
|-x-x----5-3-5\-----x-x----5-3-5\----------|
|-x-x--0------------x-x--0-----------------|

Then
|------------------|
|------------------|
|------------------|
|------------------|
|--2-2-3-3-4-4-5-5-|
|--2-2-3-3-4-4-5-5-|

Pt. 2
|--------------------------------------------------|
|--------------------------------------------------|
|--------------------------------------------------| 
|--------12-10-12~--12-10-12~----7-5-7~--7-5-7~----|
|--------10-8--10~--10-8--10~----5-3-5~--5-3-5~----|
|---0-0-----------0------------0-------0-----------|

|---------------------------------------------|
|---------------------------------------------|
|---------------------------------------------|
|----12-10-12~-12-10-12~----------------------|
|----10-8--10~-10-8--10~-7-7-7-7-7-7-7-7-7----|
|--0----------0----------7-7-7-7-7-7-7-7-7----|

The End! 
This was my first tab so i hope its alright let me know how i did!
            
Hard to play? Try these video lessons and learn fast. | Correct




comments powered by Disqus
↑ Back to top | Tablatures and chords are parodies/interpretations of the original songs. You may use it for private study, scholarship, research or language learning purposes only