» » »

Bon Jovi, Just Older Tabs (ver.1)

Artists:  A B C D E F G H I J K L M N O P Q R S T U V W X Y Z # 

Just Older Tabs (ver.1)

Bon Jovi Tabs
Rating:
0/5 (0 votes)
Just Older lessons Tabs too difficult? Try these video lessons and learn fast
                JUST OLDER

E-----------------------------------------------------------------------------
B-----------------------------------------------------------------------------
G--7-7-7---9-9-9---111111--12--12--1111-9--9---7-7-7---9-9-9---111111--12-12--
D-----------------------------------------------------------------------------
A--5-5-5---7-7-7---9-9-9---10-10---9-9--7--7---5-5-5---7-7-7---9-9-9---10-10--
E-----------------------------------------------------------------------------

E----------------------------3---2-
B----------------------------3---3-
G-1111--9-9--7-7-6---2-------2---2-
D--------------------2-------0---0-
A-9-9---7-7--5-5-4---0-------------
E----------------------------------

VERSES
E-------------------------------------------------------3--
B-----------------------------------2--3--------0--2----3--
G-------------------------------4-----------2-----------0--
D-5-55-5-55-5-55-5-55-5-5-5-----4-----------2-repeat----0--
A-5-55-5-55-5-55-5-55-5-5-5-----2-----------0-----------2--
E-3-33-3-33-3-33-3-33-3-3-3-----------------------------3--

solo
E----------------------------------------------------------------------------------
B--------------------------------------------------------------------------------2-
G-7-7-7---9-9-9---111111--12--11--9---7/9\7--5/7\5--3/5\3--2/4\2--4-2----4-2-----2-
D---------------------------------------------------------------------4-2---4-2--0-
A-5-5-5---7-7-7---9-9-9------------------------------------------------------------
E----------------------------------------------------------------------------------

E------------------------------------------------------------------------------------
B----------------------------------------------------------15-15---15-15-15--14-14-14
G-2--4b-4-22---7-7-7--9-9-9--11-11-11--12-12-12--14-14-14----------------------------
D-2----------------------------------------------------------------------------------
A-0----------------------------------------------------------------------------------
E------------------------------------------------------------------------------------

E-----------------------------------------------------------------------------------
B-12-12-12--10-10-10--7/9\7--5/7\5--3/5\3--2/4\2------------------------------------
G------------------------------------------------4-2-----4-2-----4-2-----4-2------2-
D----------------------------------------------------4-2-----4-2-----4-2-----4-2--2-
A---------------------------------------------------------------------------------0-
E-----------------------------------------------------------------------------------

E---9---7---5--5--7--9-9-10-10-
B-9---7---5----5--7--9-9-10-10-
G------------------------------
D------------------------------
A------------------------------
E------------------------------
            
Submit corrections

comments powered by Disqus
↑ Back to top | Bon Jovi Tabs for Just Older. Lyrics for acoustic guitar and electric guitar. Tablatures and chords are parodies/interpretations of the original songs. You may use it for private study, scholarship, research or language learning purposes only