» » »

Bon Jovi, I Want To Be Loved Tabs (ver.1)

Artists:  A B C D E F G H I J K L M N O P Q R S T U V W X Y Z # 

I Want To Be Loved Tabs (ver.1)

Bon Jovi Tabs
 Rating:
4/5 (4 votes)
I Want To Be Loved lessons Tabs too difficult? Try these video lessons and learn fast
1
                Easy for beginners and fun to play for advanced or intermediate.
Drop-D tuning. Use riff 4 as the "solo".

Have fun!




Riff 1: 

e|-------------------------------| 
B|-------------------------------| 
G|--3-3--3-3---3-----------------| 
D|--3-3--3-3---3---0-0--0-0---0--| 
A|--1-1--1-1---1---0-0--0-0---0--| 
D|-----------------0-0--0-0---0--| 

Riff 2: 

e|-------------------------| 
B|-------------------------| 
G|--3-3--3-3---3--------5--| 
D|--3-3--3-3---3---3-3--5--| 
A|--1-1--1-1---1---3-3--3--| 
D|-----------------3-3-----| 

Riff 3: 

e|-----------------| 
B|-----------------| 
G|----------5------| 
D|--0---3---5---5--| 
A|--0---3---3---5--| 
D|--0---3-------5--| 

Riff 4: 
                                                
e|-----------------------------------|-----------------------------------| 
B|-----------------------------------|-----------------------------------| 
G|--2-2-2-3-3-3-------5-5-5-5-7-5-2--|--2-2-2-3-3-3----------------------| 
D|--2-2-2-3-3-3-3-3-3-5-5-5-5-7-3-2--|--2-2-2-3-3-3-3-3-3-5-5-5-5-7-5-3--| 
A|--0-0-0-1-1-1-3-3-3-3-3-3-3-5-3-0--|--0-0-0-1-1-1-3-3-3-5-5-5-5-7-5-3--| 
D|--------------3-3-3----------------|--------------3-3-3-5-5-5-5-7-5-3--| 
 |                                   |                                   | 
e|-----------------------------------|-----13-----12---------------------| 
B|-----------------------------------|--10-----10-----10-----------------| 
G|-----------------------------------|-----------------------------------| 
D|-----------------------------------|-----------------------------------| 
A|-----------------------------------|-----------------------------------| 
D|-----------------------------------|-----------------------------------| 

e|-----------------------------------|-----------------------------------| 
B|-----------------------------------|-----------------------------------| 
G|--2-2-2-3-3-3-------5-5-5-5-7-5-2--|-----------------------------------| 
D|--2-2-2-3-3-3-3-3-3-5-5-5-5-7-3-2--|--3-3-3-3-3-3-3-3-5-5-5-5-5-5-5-5--| 
A|--0-0-0-1-1-1-3-3-3-3-3-3-3-5-3-0--|--3-3-3-3-3-3-3-3-5-5-5-5-5-5-5-5--| 
D|--------------3-3-3----------------|--1-1-1-1-1-1-1-1-3-3-3-3-3-3-3-3--| 
 |                                   |                                   | 
e|-----10-----8----------------------|-----------------------------------| 
B|-----------------------------------|--11---10--------------------------| 
G|--10-----10----10------------------|------------10---------------------| 
D|-----------------------------------|-----------------10----------------| 
A|-----------------------------------|-----------------------------------| 
D|-----------------------------------|-----------------------------------| 

Riff 5: 

e|-----------------------------------| 
B|-----------------------------------| 
G|--3-3--3-3---3---------------------| 
D|--3-3--3-3---3---0-0--0-0---0---5--| 
A|--1-1--1-1---1---0-0--0-0---0---5--| 
D|-----------------0-0--0-0---0---5--| 

Riff 6: 

e|------------------------| 
B|------------------------| 
G|--3-3--3-3---3----------| 
D|--3-3--3-3---3---3---0--| 
A|--1-1--1-1---1---3---0--| 
D|-----------------3---0--| 

Riff 7: 
                  End.1           End.2 
e|--5-----5------|--3-----3------|--3------3--| 
B|----6-----6----|----5-----5----|----5-------| 
G|------5-----5--|------5-----5--|------5-----| 
D|---------------|---------------|------------| 
A|---------------|---------------|------------| 
D|---------------|---------------|------------| 
            
Submit corrections

comments powered by Disqus
↑ Back to top | Bon Jovi Tabs for I Want To Be Loved. Lyrics for acoustic guitar and electric guitar. 1 Tablatures and chords are parodies/interpretations of the original songs. You may use it for private study, scholarship, research or language learning purposes only