>
 >
Its My Life Live 1

Its My Life Live 1 Guitar Tabs

Bon Jovi - Its My Life Live 1 chords, tabs, tablatures, lyrics

Guitar lessons | Add/correct | Request | Top 50 tabs Artists:  A B C D E F G H I J K L M N O P Q R S T U V W X Y Z 0-9

Its My Life Live 1 Guitar Tabs – Bon Jovi

CD, Sheet music, Poster

Do you like Its My Life Live 1? Share with your friends now
TabsTabs v2
This is bon jovis song Its My Life. i dont know if its completley right this is how i
it at my schools spring concert. It needs some work so please dont criticize it. Well here
go. A very simple song. wont take u long to figure it out. i reccomend a talkbox.

The sequencing will be at the bottom along with the legend.

(Verse)
                                          This aint a song...
|-------------------------------------------------------------------|
|-------------------------------------------------------------------|
|-------------------------------------------------------------------|
|-10-10----10-10-----------------------10---------10-10---10--------|
|-10-10----10-10-----------------------10---------10-10---10--------|
|-8--8-----8--8------------------------8----------8--8----8---------|
(TALKBOX)  rest during lyrics

                                        (Prechourus1)
   A silent prayer...           I aint gonna be... Your gonna hear...
|-------------------------------------------------------------------|
|-------------------------------------------------------------------|
|-----------------------------------------5-------------------------|
|-10-10----------------10-10-----10-------5-------3-----------------|
|-10-10----------------10-10-----10-------3-------3-----------------|
|-8--8-----------------8--8------8----------------1-----------------|
    (  T  A  L  K  B  O  X  )              (No talkbox)

Guitar 1&2
(Chourus #1)
Shout it...(pause) Its My Life...                    My heart is like...
|---------------------------------------------------------------------|
|---------------------------------------------------------------------|
|----5-5--------55555555----------88888888----------55555555----------|
|----5-5--------55555555-66666666-88888888-88888888-55555555-66666666-|
|----3-3--------33333333-66666666-66666666-88888888-33333333-66666666-|
|------------------------44444444----------66666666----------44444444-|

Guitar 2

|--------------------------------------------------------------------|
|--------------------------------------------------------------------|
|--------------------------------------------------------------------|
|-88888888-----------------------------------------------------------|
|-88888888-----------------------------------------------------------|
|-66666666-----------------------------------------------------------|

Guitar 1

|---------------------------------------------------------------------|
|---------------------------------------------------------------------|
|---------------------------------------------------------------------|
|-88888888------------------------------------------------------------|
|-88888888------------------------------------------------------------|
|-66666666--3~-6~-----------------------------------------------------|


Solo
Guitar 1

|--------------------------------------------------------------------------|
|--------------------------------------------------------------------------|
|-7b~(repeat)-5-------8-10b12-12-12-12-12rb10~-8h10p8----10----------------|
|----------------8-10---------------------------------10--------------1----|
|-----------------------------------------------------------------1-3---3~-|
|--------------------------------------------------------------------------|
( T A L K B O X)

Guitar 2
|---------------------------------------------------------------------------
|---------------------------------------------------------------------------
|---------------------------------------------------------5-----------------
|-55555555-77777777-33333333333333333-5555555555555555----5-----------------
|-55555555-77777777-33333333333333333-5555555555555555----3-----------------
|-33333333-55555555-11111111111111111-3333333333333333----------------------
 pm_________________       


Guitar 1&2
(prechorus2)Chorus #2
             Its My Life...                       My heart is...
|-------------------------------------------------------------------------|
|-------------------------------------------------------------------------|
|-5-5---------55555555----------88888888----------55555555----------------|
|-5-5---------55555555-66666666-88888888-88888888-55555555-66666666-------|
|-3-3---------33333333-66666666-66666666-88888888-33333333-66666666-------|
|----------------------44444444----------66666666----------44444444-------|

Guitar 2

|---------|
|---------|
|---------|
|-88888888
|-88888888
|-66666666

Guitar 1

|----------------|
|----------------|
|----------------|
|-88888888-------|
|-88888888---3*--|
|-66666666-------|


Verse
prechorus1
Chorus 1x2
Verse
Chorus 1x2
Solo
prechorus2
Chorus 2x4

                       Legend
                 | pm___=palm mute   |
                 | 3~=vibrato        |
                 | h=hammer on       |
                 | p=pull off        |
                 | 3*=pinch harmonic |

Ok i know this isnt 100% correct but this is how i play it and its as close as i can get 
here u go.





Comments


Popular Bon Jovi tabs & chords
I Wanna Be Loved Bass Tabs
Dry County Chords
Nobodys Hero Chords
Come Back Tab Tabs
Little City Tabs
Wanted Dead Or Alive 5 Tabs
Its My Life Ukulele
Love Aint Nothing But A Four-letter Word Ukulele
Make A Memory Ukulele
Right Side Of Wrong Ukulele


Song lyrics



↑ Back to top | Tablatures and chords are parodies/interpretations of the original songs. You may use it for private study, scholarship, research or language learning purposes only
© 2014 AZChords.com Contact us | Privacy policy | DMCA | Add/correct tabs | Request tabs | Top 50 tabs