» » »

It's My Life Tabs (ver.6)

Artists:  A B C D E F G H I J K L M N O P Q R S T U V W X Y Z # 

It's My Life Tabs (ver.6)

Bon Jovi
Rating:
0/5 (0 votes)

Hard to play? Try these video lessons and learn fast.
                e|---------------------------------------------------------------------------|
B|-1--------5--6--5--1--1--1--0-------------5--6--5--1--1--1--0--------------|
G|-2------5-------------2-------0--2-----5--------------2--------2-----------|
D|-2---7----------------3-------------7-----------------3--------------------|
A|---------------------------------------------------------------------------|
E|---------------------------------------------------------------------------|


VERSE 1:
Am                                       Em    G
This ain't a song for the broken hearted
   Am                                   Em    G
No silent prayer for the faith departed
   Am                    Em
I ain't gunna be just a face in the crowd
            C                     E
Your gunna hear my voice when I shout it out loud

CHORUS:
         Am
It's my life
      F            C
It's now or never
               G            Am
I aint gunna live for ever
             F                 C
I just wanna live while I'm alive
          Am
It's my life
                      F           C
My heart is like an open highway
                     G             Am
Like Frankie said I did it my way
               F               G
I just wanna live while I'm alive

It's my life


e|----------------------------------------------------------------------------|
B|-------5--6--5--1--1--1--0--------------------------------------------------|
G|----5--------------2--------2-----------------------------------------------|
D|-7-----------------3--------------------------------------------------------|
A|----------------------------------------------------------------------------|
E|----------------------------------------------------------------------------|

VERSE 2:
Am                                       Em     G
This is for ones who stood their ground
      Am                                Em   G
For Tommy n Gina who never backed down
                  Am               Em
Tomorrows gettin harder make no mistake
                C                            E
Luck aint even luck you gotta make your own breaks

CHORUS

GUITAR SOLO:

e|---------------------------------------------------------------------------|
B|---------------------------------------------------------------------------|
G|----------------5--4--2----------------------------------------------------|
D|-7-7-7-7--5-5--------------------------------------------------------------|
A|-7-7-7-7--5-5--------------------------------------------------------------|
E|-5-5-5-5--3-3--------------------------------------------------------------|

MIDDLE:
Am                            Em
Baby stand tall when theyre callin you out
       Am                    Em
Don't bend don't break baby don't back down

CHORUS

FINALE:

e|---------------------------------------------------------------------------|
B|-----5--6--5--1--1-------5--6--5--1--1-------------------------------------|
G|---5-------------2-----5-------------2-------------------------------------|
D|-7---------------3---7---------------3-------------------------------------|
A|---------------------------------------------------------------------------|
E|---------------------------------------------------------------------------|
            
Hard to play? Try these video lessons and learn fast. | Correct




comments powered by Disqus
↑ Back to top | Tablatures and chords are parodies/interpretations of the original songs. You may use it for private study, scholarship, research or language learning purposes only