» » »

Bon Jovi, In These Arms Tabs (ver.3)

Artists:  A B C D E F G H I J K L M N O P Q R S T U V W X Y Z # 

In These Arms Tabs (ver.3)

Bon Jovi Tabs
Rating:
0/5 (0 votes)
In These Arms lessons Tabs too difficult? Try these video lessons and learn fast
                (Intro)
                  Bon Jovi - In These Arms Intro                                  


      ^                                       ^                 
     W                   W                   W                 
E||--0----------------|--L----------------|--0----------------|
B||--0----------------|--L----------------|--0----------------|
G||--1----------------|--L----------------|--2----------------|
D||--2----------------|--L----------------|--2----------------|
A||--2----------------|--L----------------|--0----------------|
E||--0----------------|--L----------------|-------------------|


                      ^                                       ^                 
  W                   W                   W                   W                 
--L----------------|--0----------------|--L----------------|--0----------------|
--L----------------|--0----------------|--L----------------|--0----------------|
--L----------------|--1----------------|--L----------------|--2----------------|
--L----------------|--2----------------|--L----------------|--2----------------|
--L----------------|--2----------------|--L----------------|--0----------------|
-------------------|--0----------------|--L----------------|-------------------|


                      ^                            ^               
                                                   |----3----|     
  W                   W                   H        Q    Q    Q     
--L----------------|--4----------------|--L-----------------------|
--L----------------|--5----------------|--L--------9----7----9----|
--L----------------|--4----------------|--L--------9--------------|
--L----------------|--2----------------|--L--------9--------------|
--L----------------|--2----------------|--L-----------------------|
-------------------|-------------------|--------------------------|


                                           ^                 
   W                   W                   W                 
--------------------|-------------------|--4----------------|
--10----------------|--L----------------|--5----------------|
---9----------------|--L----------------|--4----------------|
---9----------------|--L----------------|--2----------------|
--------------------|-------------------|--2----------------|
--------------------|-------------------|-------------------|


           ^                                                        
           |----3----|                                              
  H        Q    Q    Q        W                   W                 
--L-----------------------|--------------------|-------------------|
--L--------9----7----9----|--10----------------|--L----------------|
--L--------9--------------|---9----------------|--L----------------|
--L--------9--------------|---9----------------|--L----------------|
--L-----------------------|--------------------|-------------------|
--------------------------|--------------------|-------------------|


  ^                            ^                                    
                               |----3----|                          
  W                   H        Q    Q    Q        W                 
--4----------------|--L-----------------------|--------------------|
--5----------------|--L--------9----7----9----|--10----------------|
--4----------------|--L--------9--------------|---9----------------|
--2----------------|--L--------9--------------|---9----------------|
--2----------------|--L-----------------------|--------------------|
-------------------|--------------------------|--------------------|


                      ^                            ^               
                                                   |----3----|     
  W                   W                   H        Q    Q    Q     
-------------------|--4----------------|--L-----------------------|
--L----------------|--5----------------|--L--------9----7----9----|
--L----------------|--4----------------|--L--------9--------------|
--L----------------|--2----------------|--L--------9--------------|
-------------------|--2----------------|--L-----------------------|
-------------------|-------------------|--------------------------|


                                           ^                 
   W                   W                   W                 
--------------------|-------------------|--4----------------|
--10----------------|--L----------------|--4----------------|
---9----------------|--L----------------|--6----------------|
---9----------------|--L----------------|--6----------------|
--------------------|-------------------|--4----------------|
--------------------|-------------------|-------------------|


                        ^                   ^                 
  Q    Q    H           W                   W                 
--L----L----4--------|--0----------------|--2----------------|
--L----L----4--------|--0----------------|--2----------------|
--L----L----6--------|--2----------------|--4----------------|
--L----L----6--------|--2----------------|--4----------------|
--L----L----4--------|--0----------------|--2----------------|
---------------------|-------------------|-------------------|


  ^                            ^                                    
                               |----3----|                          
  W                   H        Q    Q    Q        W                 
-------------------|--------------------------|--------------------|
--9----------------|--L--------9----7----9----|--10----------------|
--9----------------|--L--------9--------------|---9----------------|
--9----------------|--L--------9--------------|---9----------------|
--7----------------|--L-----------------------|--------------------|
-------------------|--------------------------|--------------------|


                      ^                            ^               
                                                   |----3----|     
  W                   W                   H        Q    Q    Q     
-------------------|-------------------|--------------------------|
--L----------------|--9----------------|--L--------9----7----9----|
--L----------------|--9----------------|--L--------9--------------|
--L----------------|--9----------------|--L--------9--------------|
-------------------|--7----------------|--L-----------------------|
-------------------|-------------------|--------------------------|


                                           ^                 
   W                   W                   W                 
--------------------|-------------------|-------------------|
--10----------------|--L----------------|--9----------------|
---9----------------|--L----------------|--9----------------|
---9----------------|--L----------------|--9----------------|
--------------------|-------------------|--7----------------|
--------------------|-------------------|-------------------|


           ^                                                        
           |----3----|                                              
  H        Q    Q    Q        W                   W                 
--------------------------|--------------------|-------------------|
--L--------9----7----9----|--10----------------|--L----------------|
--L--------9--------------|---9----------------|--L----------------|
--L--------9--------------|---9----------------|--L----------------|
--L-----------------------|--------------------|-------------------|
--------------------------|--------------------|-------------------|


  ^                                         ^                 
  W                   Q    Q    H           W                 
--4----------------|--L----L----4--------|--0----------------|
--4----------------|--L----L----4--------|--0----------------|
--6----------------|--L----L----6--------|--2----------------|
--6----------------|--L----L----6--------|--2----------------|
--4----------------|--L----L----4--------|--0----------------|
-------------------|---------------------|-------------------|


  ^                                                                             
  W                                                                             
--2----------------|-------------------|-------------------|-------------------|
--2----------------|-------------------|-------------------|-------------------|
--4----------------|-------------------|-------------------|-------------------|
--4----------------|-------------------|-------------------|-------------------|
--2----------------|-------------------|-------------------|-------------------|
-------------------|-------------------|-------------------|-------------------|



-----|------||
-----|------||
-----|------||
-----|------||
-----|------||
-----|------||




Duration Legend
---------------
W - whole
H - half
Q - quarter
E - 8th
S - 16th
T - 32nd
X - 64th
. - note dotted
|-n-|  - n-tuplets


Tablature Legend
----------------
L - tied note
x - dead note
g - grace note
(n) - ghost note
> - accentuded note
NH - natural harmonic
AH - artificial harmonic
TH - tapped harmonic
SH - semi harmonic
PH - pitch harmonic
h - hammer on
p - pull off
b - bend
br - bendRelease
pb - preBend
pbr - preBendRelease
brb - bendReleaseBend
\n/ - tremolo bar dip
\n - tremolo bar dive
-/n - tremolo bar Release up
/n\ - tremolo bar inverted dip
/n - tremolo bar return
-\n - tremolo bar Release down
S - shift slide
s - legato slide
/ -  slide into from below or out of upwards
\ -  slide into from above or out of downwards
~ - vibrato
W - wide vibrato
tr - trill
TP - tremolo picking
T - tapping
S - slap
P - pop
< - fade in
^ - brush up
v - brush down
            
Submit corrections

comments powered by Disqus
↑ Back to top | Bon Jovi Tabs for In These Arms. Lyrics for acoustic guitar and electric guitar. Tablatures and chords are parodies/interpretations of the original songs. You may use it for private study, scholarship, research or language learning purposes only