>
 >
In These Arms

In These Arms Guitar Tabs

Bon Jovi - In These Arms chords, tabs, tablatures, lyrics

Guitar lessons | Add/correct | Request | Top 50 tabs Artists:  A B C D E F G H I J K L M N O P Q R S T U V W X Y Z 0-9

In These Arms Guitar Tabs – Bon Jovi

CD, Sheet music, Poster

Do you like In These Arms? Share with your friends now
Bass TabsBass Tabs v2Bass Tabs v3ChordsChords v2Chords v3Drum TabsTabsTabs v2Ukulele
guitar 1:jon bon jovi

INTRO:

you wan't commitment,take a look into these eyes
they burn of fire,yeah,until the end of times
                  C#m                         A
I will do anything I'd beg, I'd steal, I'd die
    B                            E
To have you in these arms tonight


Baby I want you,like the roses  want the rain 
You know I need you; like a poet needs the pain 
I would give anything; my blood my love my life. 
If you were in these arms tonight 


CHOROUS:

.----------------------------------------------------------------------------
.----------------------------------------------------------------------------
.----------------------------------------------------------------------------
.------------4--4-4-4---6--6-6-6-------------------------6--6-6-6--4-4-4-4---
.-2--2-2-2---2--2-2-2---4--4-4-4---7--7-7-7---2--2-2-2---4--4-4-4--2-2-2-2---
.-0--0-0-0-------------------------5--5-5-5---0--0-0-0-----------------------





.------------
.------------
.-2--2-2-2---
.-0--0-0-0---
.------------

.------------------------------------------------------------0-0-0--0-0---0--
.------------------------------------------------------------2-2-2--2-2---0--
.--------------------------------------------------6----4----2-2-2--2-2---0--
.------------4--4-4-4---6--6-6-6--------------2----6----4----2-2-2--2-2---2--
.-2--2-2-2---2--2-2-2---4--4-4-4---7--7-7-7---2----4----2-----------------2--
.-0--0-0-0-------------------------5--5-5-5---0---------------------------0--


VERSE 2:

Stair at the sun
And we made a promise
A promise this world
Would never blind us
And these were our words
Our words were our songs
Our songs were our prairies these prairies keep me strong
And I still believe if you were in these arms

(CHOROUS)

Interlude:
B5
Your clothes are still scattered all over our room
A5
This whole place still smells like your cheep perfume
B5
Everything here reminds me of you
A5
Therese nothing I wouldn't do

Guitar solo:
E5-B5-C#5-A5
E5-B5-F#5-A5

B5
And these were our words they keep me strong....baby!

(CHOROUS)

Y ACABA CON EL RITMO DEL CORO


Chords:
E - 022100
Esus4 - 022200
E5 - 022xxx
B5 - x244xx
C#5 - x466xx
A5 - x022xx
G#5 - 466xxx
F#5 - 244xxx





Comments


Popular Bon Jovi tabs & chords
When We Were Beautiful Bass Tabs
Always 2 Chords
Drift Away Chords
If I Was Your Mother Chords
Its My Life 3 Chords
What Do You Got Chords
Blood Money Tabs
Hook Me Up 2 Tabs
Its My Life Tabs
We Can Dance Tabs


Song lyrics



↑ Back to top | Tablatures and chords are parodies/interpretations of the original songs. You may use it for private study, scholarship, research or language learning purposes only
© 2014 AZChords.com Contact us | Privacy policy | DMCA | Add/correct tabs | Request tabs | Top 50 tabs