» » »

Bon Jovi, If I Was Your Mother Tabs (ver.1)

Artists:  A B C D E F G H I J K L M N O P Q R S T U V W X Y Z # 

If I Was Your Mother Tabs (ver.1)

Bon Jovi Tabs
Rating:
0/5 (0 votes)
If I Was Your Mother lessons Tabs too difficult? Try these video lessons and learn fast
                Artist - Bon Jovi(J.Bon Jovi, R.Sambora)
Song - If I Was Your Mother
Album - Keep The Faith

A heavy song which is always superb. Enjoy.

Intro
e-----------------------------------------------------------------|
B-----------------------------------------------------------------|
G------------------------------------------7b-5~------------------|
D-----------------------------------------------------------------|
A--5/7-7-7-7-5-7-------3-----5/7-7-7-7-5-7--------3/5-5-5-5-3-5---|
E--3/5-5-5-5-3-5-0-3-0----5--3/5-5-5-5-3-5--------1/3-3-3-3-1-3---|


                                                 AH
e--------3--3---------------------------------------------------------|
B-----3--3--3-----------------7~--------------------------------------|
G-----2--0--0-----------------7~--------------------------------------|
D--3--0-----0---------------------------------------------------------|
A--3-----3-----5/7-7-7-7-5-7-------5/7-7-7-7-5-7-5b-3~-3/5-5-5-5-3-5--|
E--1--------3--3/5-5-5-5-3-5-------3/5-5-5-5-3-5-------1/3-3-3-3-1-3--|

e--------3--3--|
B-----3--3--3--|
G-----2--0--0--|
D--3--0-----0--|
A--3-----3-----|
E--1--------3--|

Verse
Acoustic
e--0--0--3--0--3--0--0--0--3--0--1--3-3-3--1--3---1-----3-3-|
B--1--1--3--1--3--1--1--1--3--1--1--3-3-3--1--3---1--3--3-3-|
G--2--2--0--2--0--2--2--2--0--2--2--0-0-0--2--0---2--2--0-0-|
D--2--2--0--2--0--2--2--2--0--2--3--0-0-0--3--0---3--0----0-|
A--0--0-----0-----0--0--0-----0--3---------3------3-----3---|
E--------3-----3-----------3-----1--3-3-3--1--3---1-------3-|

Switch to electric
e--------------------------------------------------------|
B--------------------------------------------------------|
G--------------------------------------------------------|
D--------------------------------------------------------|
A--5/7-7-7-7-5-7--5/7-7-7-7-5-7-------3---3/5-5-5-5-3-5--|
E--3/5-5-5-5-3-5--3/5-5-5-5-3-5-0-3-0---5-1/3-3-3-3-1-3--|


e-------3--3--3-3--|
B----3--3--3--3-3--|
G----2--0--0--0-0--|
D--3-0--------0-0--|
A--3----3--3-------|
E--1----------3-3--|


Pre-Chorus (Power Chords)
A5  G5   F5   G5   A5   G5   F5   D5   G/C5   G5

Verse 2 (as verse 1)

Pre-Chorus

Chorus
e-----------3-3-3-3------------------3-----------3-3-3-3--|
B-----------3-3-3-3------------------3-----------3-3-3-3--|
G--2-2-2-2--0-0-0-0-----------5-5-5--0--2-2-2-2--0-0-0-0--|
D--2-2-2-2--0-0-0-0--3-3-3-3--5-5-5--0--2-2-2-2--0-0-0-0--|
A--0-0-0-0-----------3-3-3-3--3-3-3-----0-0-0-0-----------|
E-----------3-3-3-3--1-1-1-1---------3-----------3-3-3-3--|


e------------3--3--|
B------------3--3--|
G---------7--0--0--|
D--3-3-3--7-----0--|
A--3-3-3--5--3-----|
E--1-1-1--------3--|


Solo
e---------------------------------------------------------|
B-----------------------------7br-------------------------|
G--------------------x7-x7-x7-7br-5-7-5---5~--------------|
D---------------------------------------7----7p5h7p5h7p5--|
A--12----------3------------------------------------------|
E-------0-3-5-0---5~--------------------------------------|

                  AH==========¦            AH  AH       AH
e-----------------------------------------------------------|
B-----------------------------------------------------------|
G---------------------------------------4---5---7-5---4-----|
D-----------------------------------7-------------------7~--|
A--5h7p5h7p53-5-3-5b-5-5-3-5b~-5-7---7---7---7-----7--------|
E-----------------------------------------------------------|


e---------7---8---10-8----7------------------------------|
B----10----------------------10~-x10-18b~-18p17p15-17-18-|
G--9----9---9---9-------9--------------------------------|
D--------------------------------------------------------|
A--------------------------------------------------------|
E--------------------------------------------------------|


e--15-17-19-17-15-17-18-10/22~-20-17h19----17----17-------------|
B---------------------------------------20----18----17h18-15h17-|
G---------------------------------------------------------------|
D---------------------------------------------------------------|
A---------------------------------------------------------------|
E---------------------------------------------------------------|


e-------------------------------|
B-----15------------------------|
G--17----16h17-14h16------------|
D--------------------17-17~/19~-|
A-------------------------------|
E-------------------------------|


Bridge
  PM<<<<<<<<<<<<<<<<<<<<<<<<<<<<<<
e----------------------------------|
B----------------------------------|
G----------------------------------|
D--5-5-5-5-5-5-5-5-5-5-5-5-5-5-5-5-|
A--3-3-3-3-3-3-3-3-3-3-3-3-3-3-3-3-|
E----------------------------------|

Pre-chorus

Chorus
            
Submit corrections

comments powered by Disqus
↑ Back to top | Bon Jovi Tabs for If I Was Your Mother. Lyrics for acoustic guitar and electric guitar. Tablatures and chords are parodies/interpretations of the original songs. You may use it for private study, scholarship, research or language learning purposes only