>
 >
I'd Die For You

I'd Die For You Guitar Tabs

Bon Jovi - I'd Die For You chords, tabs, tablatures, lyrics

Guitar lessons | Add/correct | Request | Top 50 tabs Artists:  A B C D E F G H I J K L M N O P Q R S T U V W X Y Z 0-9

I'd Die For You Guitar Tabs – Bon Jovi

CD, Sheet music, Poster

Do you like I'd Die For You? Share with your friends now
ChordsTabs
Intro

song Starts at 4 seconds
e-------------------------------------------------------------------------|
b-------------------------------------------------------------------------|
g-----5-5-5---2----2-----------5-5-5--------------------------------------|
d-5---5-5-5---2----2---3---5---5-5-5--------------------------------------|
a-5---3-3-3---0----0---3---5---3-3-3-----2~3~------------2~----------2~3~-|
E-3--------------------1---3----------5~~-----1~~3~5~3~5~--0-3~~5~~5~-----|

e-------------------|---------------------------------------------------|
b-------------------|---------------------------------------------------|
g-----------5-5-5---|----\--------------\-----------------------2-------|
d--------5--5-5-5---|----\----------3---\----------2----3-3-3---2-----5-|
a--------5--3-3-3---|----\-----3x---3---\-----5x---2----3---3-0-0-----5-|
E-1~3~5~-3----------|------3x5x-----1-----3x5x-----0----1----------3X-3-|

e--------------------------------------------------------------------------|
b--------------------------------------------------------------------------|
g--------5----------------2------------------------------------------------|
d-5-3----5-----5----3-3-3-2-2------5---3------2----------------------------|
a-5-3-3--3--3x-5----3---3-0-0------5---3-3-3--2-----2~3~------------2~-----|
E-3-1-1--------3-3x-1-----------3x-3---1-1-1--0--5~~-----1~~3~5~3~5~--0-3~~|

e--------------------------------------------------------------------------|
b--------------------------------------------------------------------------|
g--------------------------------------------------------------------------|
d-----------------5--5-5-5-------------------------------------------5--5-5|
a------2~3~-------5--3-3-3-----2~3~-----------2~----------2~3~-------5--3-3|
E-5~~5~----1~3~5~-3---------5~~----1~~3~5~3~5~--0-3~~5~~5~----1~3~5~-3-----|

e-----------------------------19*------12*-19*---------------------------|
b-----------------------------------19*----------------------------------|
g----------------------\---------19*-----------2-2-2-2-2-----------------|
d-5----------3---------\--2--------------------2-2-2-2-2--3-3-3-3-3-3----|
a-3------3x--3------5x-\--2--------------------0x0x0x0x0--3-3-3-3-3-3-3--|
E----3x5x----1--3x5x------0-------------------------------1x1-1-x-1-1-1--|

e--------------------------------------------------------------------------|
b--------------------------------------------------------------------------|
g----------------------------------2----------------------------2----------|
d-5--5-5-5--5-5-5---2(w)--3-3-3----2-----5--3---5----5----3-3-3-2-2----5--3|
a-5--5-5-5--5-5-5---2(w)--3---3--0-0-----5--3-3-5----5----3---3-0-0-3x-5--3|
E-3--3----------3---0(w)--1-----------3x-3--1-1-33x--3-3x-1------------3--1|

e--------------------------------------------------------------------------|
b--------------------------------------------------------------------------|
g--------------------------------------------------------------------------|
d------2-------------------------------------------5-5-5-5-----------------|
a-3-3--2----2~3~------------2~----------2~3~-------5-3-3-3-----2~3~--------|
E-1-1--0-5~~-----1~~3~5~3~5~--0-3~~5~~5~----1~3~5~-3--------5~~----1~~3~5~-|

                                       solo
e------------------------------------|-----------------------------------|
b------------------------------------|-----------------------------------|
g------------------------------------|--------------------7----------7/8-|
d----------------------------5-5-5-5-|--7---9-10-7---9-10--------9-10----|
a-----2~----------2~3~-------5-3-3-3-|----------------------10-----------|
E-3~5~--0-3~~5~~5~----1~3~5~-3-------|-----------------------------------|

e-------------------------------------------------------------------------|
b-----------------12-13-14-------14--------13---13---13-13---13-17-13--13-|
g----------------12-------14----14--16-17--16^--16^-----16^--------16^----|
d-11-10----7----12-------------14-----------------------------------------|
a-------10---7------------------------------------------------------------|
E-------------------------------------------------------------------------|

e----------------------------------------------------------------------|
b-13---13-13---13-17---------------------------------------------------|
g-16^--16^-----16^-------------------------------------------------15~-|
d-----------------------17~~-----7~~----7-----7-----7~~/15-15-16-17----|
a---------------------------7x8x9---7x9x--7x9x--7x9x-------------------|
E----------------------------------------------------------------------|

e-----------------------------------------------17-19^-19~~-17-19-20-19-|
b---------------------------------------15-17/19------------------------|
g------15------15------15~~-------15-17---------------------------------|
d-15-17---15-17---15-17-----15-17---------------------------------------|
a-----------------------------------------------------------------------|
E-----------------------------------------------------------------------|

e-20-21^---------------------------------------------------------------|
b-------17-19-21-17----------------------------------------------------|
g------------------20-18~~-----------------16~~----------------15-18~~-|
d----------------------------------------15-----------15-16-17---------|
a--------------------------------15-16-17--------15-17-----------------|
E---------------------------15-17--------------------------------------|

e------------------------------------19*-------12*-19*-----------------------|
b---------------------------------------19*----------------------------------|
g-------------------2-2-2-2----------------19*-------------------------------|
d-3-------------2---2-2-2-2---3---5------------------------------------------|
a-3---5-5-5-5---2---0-0-0-0---3---5------------------------2~3~-----------2~-|
E-1---3-3-3-3---0-------------1---3---------------------5~~----1~~3~5~3~5~---|

e---------------------------------------------------------------------------|
b---------------------------------------------------------------------------|
g------------------------5--5-----------------------------------------------|
d----------------------5--5--5-5--------------------------------------------|
a-----------2~3~-------5---3--3--3----2~3~-----------2~----------2~3~-------|
E-0-3~~5~~5~----1~3~5~-3-----------5~~----1~~3~5~3~5~--0-3~~5~~5~----1~3~5~-|

e----------------------------------------------------------------||
b----------------------------------------------------------------||
g---5-5-5------------------------------------------------------2-||
d-5--5-5-5---------------------------------------------5-2-3-5-2-||
a-5---3-3-3-----2~3~-----------2~----------2~3~--------5-2-3-5-0-||
E-3----------5~~----1~~3~5~3~5~--0-3~~5~~5~----1~3~5~--3-0-1-3---||


 X = dead note
 ~ = vibrato
 / = slide up
 \ = slide down
 ^ = bend up
(w)= whammy bar
 * = harmonic

 this song is about 98% correct the solo might be a little off if u have
 also listen for the timing so of it is a little weird.





Comments


Popular Bon Jovi tabs & chords
Bells Of Freedom Bass Tabs
Any Other Day 2 Chords
Hook Me Up 1 Chords
Satellite Chords
Silent Night Chords
Always (Solo Ver 2) Tabs
Its My Life Live Tabs
Superman Tonight Tabs
Who Says You Cant Go Home Tabs
Dry Country Ukulele


Song lyrics



↑ Back to top | Tablatures and chords are parodies/interpretations of the original songs. You may use it for private study, scholarship, research or language learning purposes only
© 2014 AZChords.com Contact us | Privacy policy | DMCA | Add/correct tabs | Request tabs | Top 50 tabs