» » »

Bon Jovi, I D Die For You Chords (ver.1)

Artists:  A B C D E F G H I J K L M N O P Q R S T U V W X Y Z # 

I D Die For You Chords (ver.1)

Bon Jovi Tabs
Rating:
0/5 (0 votes)
I D Die For You lessons Tabs too difficult? Try these video lessons and learn fast
                Track #8


Intro (don't look too much at the timing):
Part 1:
|------------------------------|
|.----------------------------.|
|--2----2---------------5-5-4--|
|--2----2-3----x-x-5----5-5-4--|
|.-0----0-3----x-x-5----3-3-2-.|
|---------1----x-x-3-----------|

Part 2:
[This part I'm not 100% sure:]
-----------------------------------------
-----------------------------------------
-----------------------------------------
-----------------------------------------
-0--2--3----------0-------0--2---------0-
------------1--3-------3---------0--3----


-----------------------------------------
-----------------------------------------
-----------------------------5-5-4-------
-----------------------------5-5-4-------
-0--2--3----------0----------3-3-2-------
------------1--3-------3-----------------

A
If you could see inside my heart
     F
Then you would understand
    G
I'd never mean to hurt
         E
Baby I'm not that kind of man

I might not say I'm sorry
Yeah I might talk tough sometimes
And I might forget the little things
Or keep you hanging on the line

     F                     A       G
In a world that don't know Romeo & Juliet
F                  C           G
Boy meets girl and promises we can't forget
F                A                G
We are cast from Eden's gate with no regrets
F                E
Into the fire we cry

[intro part 2, twice]
I'd die for you
I'd cry for you
I'd do anything
I'd lie for you
You know it's true
Baby I'd die for you
I'd die for you
I'd cry for you
If it came right down to me and you
You know it's true
Baby I'd die for you

I might not be a saviour
And I'll never be a king
I might not send you roses
Or buy you diamond rings

But if I could see inside you
Maybe I'd know just who we are
'Cause our love is like a hunger
Without it we would starve

In a world that don't know Romeo & Juliet
Boy meets girl and promises we can't forget
We are cast from Eden's gate with no regrets
Into the fire we cry

I'd die for you
I'd cry for you
I'd do anything
I'd lie for you
You know it's true
Baby I'd die for you
I'd die for you
I'd cry for you
If it came right down to me and you
You know it's true
Baby I'd die for you

During solo intro part 2, 1.5 times, end with D E(7th fret) F G A

Repeat chorus
ending with D E(7th fret) F G A

Brought to you by:
Piet Marcus van der Meulen


Piet Marcus van der Meulen
HI-Leeuwarden

    3 KINDS OF PEOPLE: THOSE WHO CAN COUNT & THOSE WHO CAN'T
            
Submit corrections

comments powered by Disqus
↑ Back to top | Bon Jovi Chords for I D Die For You. Lyrics for acoustic guitar and electric guitar. Tablatures and chords are parodies/interpretations of the original songs. You may use it for private study, scholarship, research or language learning purposes only