» » »

Bon Jovi, I Could Make A Livinout Of Lovin You Tabs (ver.1)

Artists:  A B C D E F G H I J K L M N O P Q R S T U V W X Y Z # 

I Could Make A Livinout Of Lovin You Tabs (ver.1)

Bon Jovi Tabs
Rating:
0/5 (0 votes)
I Could Make A Livinout Of Lovin You lessons Tabs too difficult? Try these video lessons and learn fast
                (Intro)
PROPS GO TO: magdalena abbott (bonji)

I could make a livin' out of lovin' you


e---------------------------------------------------------/
b---------------------------------------------------------/
g---------------------------------------------------------/
d-----3-3-3--4-5--/-8-8-8--9-10--/-8-8-8-9-10-/-3-3-3-4-5-/
a-----3-3-3--4-5--/-8-8-8--9-10--/-8-8-8-9-10-/-3-3-3-4-5-/
e-----1-1-1--2-3--/-6-6-6--7-8---/-6-6-6-7-8--/-1-1-1-2-3-/

play this twice while guitar  2 play somenthing like this

e-------------------------------------------------/
b---8^^--8^^--8-8-6-4-8---------------------------/
g-------------------------------------------------/
d-------------------------------------------------/
a-------------------------------------------------/
e-------------------------------------------------/

I'm not very shure if is right, but sound too
so fun it}
            
Submit corrections

comments powered by Disqus
↑ Back to top | Bon Jovi Tabs for I Could Make A Livinout Of Lovin You. Lyrics for acoustic guitar and electric guitar. Tablatures and chords are parodies/interpretations of the original songs. You may use it for private study, scholarship, research or language learning purposes only