» » »

Bon Jovi, Hook Me Up Real Tabs (ver.1)

Artists:  A B C D E F G H I J K L M N O P Q R S T U V W X Y Z # 

Hook Me Up Real Tabs (ver.1)

Bon Jovi Tabs
 Rating:
4/5 (4 votes)
Hook Me Up Real lessons Tabs too difficult? Try these video lessons and learn fast
                PROPS GO TO: magdalena abbott *bonji*

Hook me up


This really a good rock song, so I hope you enjoy playing it (like I do=)

INTRO  ,  with palm muted

e-----------------------------------------------------/
b-----------------------------------------------------/
g-----------------------------------------------------/
d-----------------------------------------------------/
a------5-5-5-5-5-5-5-5-5—-6--5-5-5-5-5-5—6------------/
e------5-5-5-5-5-5-5-5-5--6--5-5-5-5-5-5—6------------/

and then¨:
e-------------------------------------------------------------/
b-------------------------------------------------------------/
g----------------------------5-5-5-5-5-/----------------------/
d----------------------------5-5-5-5-5------------------------/
a---5-5-5-5-5-/-8-8-8-8-8-/--3-3-3-3-3---5-5-5-5-5------------/
e---5-5-5-5-5-/-8-8-8-8-8-/--------------3-3-3-3-3------------/
and play this twice

-hello is there anybody outhere??,I´m alone hanging by a thread
*(for this play just the intro parte again)*
everywhere around the world, everybody´s waiting for someday
calling out around the world, maybe someday might be tonight

CHORUS

e----------------------------------------------------------/
b----------------------------------------------------------/
g----------------------------5-5-5-5-5-/-------------------/
d----------------------------5-5-5-5-5---------------------/
a---5-5-5-5-5-/-8-8-8-8-8-/--3-3-3-3-3---5-5-5-5-5---------/
e---5-5-5-5-5-/-8-8-8-8-8-/--------------3-3-3-3-3---------/
hook me up, I´m reaching out for you c´mon
hook me up, I know you can do it , c´mon
take me on

are you there??, tell me what you´re feeling, your fears
and all your wildest dreams, everyone around the world
*(for this play just the intro parte again)*
is feeling just the same way that we are, reaching out
around the world
will someone somewhere theow me a line?
CHORUS…hook me up, I´m reaching out for you c´mon
….

And then::
e-------------------------------------------------------/
b-------------------------------------------------------/
g----------------------------5-5-5-5-5-/----------------/
d----------------------------5-5-5-5-5------------------/
a---5-5-5-5-5-/-8-8-8-8-8-/--3-3-3-3-3---5-5-5-5-5------/
e---5-5-5-5-5-/-8-8-8-8-8-/--------------3-3-3-3-3------/
save me, save me, save me save me

e----------------------------------------------------/
b----------------------------------------------------/
g—---------------------------------------------------/
d---5-5-5-5-0-5-5-5-5--/-6-/--5-5-5-5-0-5-5-5--------/
a---5-5-5-5-0-5-5-5-5--/-6-/--5-5-5-5-0-5-5-5--------/
e---3-3-3-3-0-3-3-3-3--/-4-/--3-3-3-3-0-3-3-3--------/
end..

hello is there anybody outhere??

SOLO

e---------------------------------------------------------------------------
b---15-15-15-15-13-13-13—15-15-15-15-13-13-13—15-x4---13-x3---15x4-13x3-----
g---------------------------------------------------------------------------
d---------------------------------------------------------------------------
a---------------------------------------------------------------------------
e---------------------------------------------------------------------------

e---13-13-13-13-/-12-12-12-12-/-10-10-10-10-/-8-8-8-/-------------------------
b-------------------------------------------------------10-10-10-10-/-9-9-9-9-
g-----------------------------------------------------------------------------
d-----------------------------------------------------------------------------
a-----------------------------------------------------------------------------
e-----------------------------------------------------------------------------

e-----------------------------/
b----7-7-7-7-/-5-5-5-^^-------/
g-----------------------------/
d-----------------------------/
a-----------------------------/
e-----------------------------/

calling out around the world mayve someday might be tonight

CHORUS

THA´S ALL, I hope you enjoy it  :)
            
Submit corrections

comments powered by Disqus
↑ Back to top | Bon Jovi Tabs for Hook Me Up Real. Lyrics for acoustic guitar and electric guitar. Tablatures and chords are parodies/interpretations of the original songs. You may use it for private study, scholarship, research or language learning purposes only