» » »

Hook Me Up Tabs (ver.1)

Artists:  A B C D E F G H I J K L M N O P Q R S T U V W X Y Z # 

Hook Me Up Tabs (ver.1)

Bon Jovi
Rating:
0/5 (0 votes)

Hard to play? Try these video lessons and learn fast.
                Maracay, Venezuela

The 6th string is D

Power chords
INTRO I:
   D5
E|------------------|--------------|-----------------|-------------|
B|------------------|--------------|-----------------|-------------|
G|------------------|--------------|-----------------|-------------|
D|-0-0--0--0-0-0-0--|--0-0--0--0-3-|-0-0--0--0-0-0-0-|-0-0--0--0-3-|
A|-0-0--0--0-0-0-0--|--0-0--0--0-3-|-0-0--0--0-0-0-0-|-0-0--0--0-3-|
D|-0-0--0--0-0-0-0--|--0-0--0--0-3-|-0-0--0--0-0-0-0-|-0-0--0--0-3-|
                  x3                                x3
INTRO II:   
  D5                F5             C5                G5
E|-----------------|--------------|-----------------|-------------|
B|-----------------|--------------|-----------------|-------------|
G|-----------------|--------------|-----------------|-------------|
D|-0-0--0--0-0-0-0-|-3-3--3--3-3-3|-5-5--5--5-5-5-5-|-5-5--5--5-5-|
A|-0-0--0--0-0-0-0-|-3-3--3--3-3-3|-3-3--3--3-3-3-3-|-5-5--5--5-5-|
D|-0-0--0--0-0-0-0-|-3-3--3--3-3-3|-----------------|-5-5--5--5-5-|

   D5     Hello is there anybody out there?                         
|---------|
|---------|
|---------|
|-0_____--|
|-0_____--|
|-0_____--|

I'm alone........hanging by a thread
      D5
     E|------------------|
     B|------------------|
     G|------------------|
     D|------------------|
     A|-0-0--0--0-0-0-0--|
     D|-0-0--0--0-0-0-0--|3x (This part I don't know what effect Richie uses)


pre-chorus:
     Everywhere around the world..........................
   D5                F5             C5                G5
E|-----------------|--------------|-----------------|-------------|
B|-----------------|--------------|-----------------|-------------|
G|-----------------|--------------|-----------------|-------------|
D|-0-0--0--0-0-0-0-|-3-3--3--3-3-3|-5-5--5--5-5-5-5-|-5-5--5--5-5-|
A|-0-0--0--0-0-0-0-|-3-3--3--3-3-3|-3-3--3--3-3-3-3-|-5-5--5--5-5-|
D|-0-0--0--0-0-0-0-|-3-3--3--3-3-3|-----------------|-5-5--5--5-5-|x2
  
|------------|  
|------------|   
|------------|
|-0_____-----|
|-0_____-----|
|-0_____-----|

Chorus:

Hook me up..........
            D5        C5       G5         F5
         E|---------|---------|---------|---------|
         B|---------|---------|---------|---------|
         G|-7-7-7-7-|-5-5-5-5-|---------|---------|
         D|-7-7-7-7-|-5-5-5-5-|-5-5-5-5-|-3-3-3-3-|
         A|-5-5-5-5-|-3-3-3-3-|-5-5-5-5-|-3-3-3-3-|
         D|---------|---------|-5-5-5-5-|-3-3-3-3-|x2

                  verse 2:
take me on             tell me.....
         |------------|  
         |------------|   
         |------------|
         |-0_____-----|
         |-0_____-----|
         |-0_____-----|

...your fears......

   D5                F5             C5                G5
E|-----------------|--------------|-----------------|-------------|
B|-----------------|--------------|-----------------|-------------|
G|-----------------|--------------|-----------------|-------------|
D|-0-0--0--0-0-0-0-|-3-3--3--3-3-3|-5-5--5--5-5-5-5-|-5-5--5--5-5-|
A|-0-0--0--0-0-0-0-|-3-3--3--3-3-3|-3-3--3--3-3-3-3-|-5-5--5--5-5-|
D|-0-0--0--0-0-0-0-|-3-3--3--3-3-3|-----------------|-5-5--5--5-5-|x2


Chorus:

Like first but this time x4


save meeeeee.....

      D5
    E|------------------|--------------|-----------------|-------------|
    B|------------------|--------------|-----------------|-------------|
    G|------------------|--------------|-----------------|-------------|
    D|-0-0--0--0-0-0-0--|--0-0--0--0-5-|-0-0--0--0-0-0-0-|-0-0--0--0-0-|
    A|-0-0--0--0-0-0-0--|--0-0--0--0-5-|-0-0--0--0-0-0-0-|-0-0--0--0-0-|
    D|-0-0--0--0-0-0-0--|--0-0--0--0-5-|-0-0--0--0-0-0-0-|-0-0--0--0-0-|
                      X2


SOLO:

E|-----------------------------|  
B|-15b~-15b~-15b~-15b~~--13~~--|  
G|-----------------------------|  
D|-----------------------------|  
A|-----------------------------|  
D|-----------------------------|x3

 |-13-13-13-13\12-12-12-12\10-10-10-10\8-\-5------------------------------|  
 |------------------------------------------------------------------------|
 |------------------------------------------------------------------------|
 |--------------------------------------------12-12-12-12\10--10-10-10\-7-|
 |--------------------------------------------10-10-10-10\8---8--8--8-\-5-|
 |------------------------------------------------------------------------|


pre chorus: same another ones

Chorus: same another ones until the end


Santiago Rodriguez
Maracay, Venezuela

mail me if you want more bon jovi tabs
            
Hard to play? Try these video lessons and learn fast. | Correct




comments powered by Disqus
↑ Back to top | Tablatures and chords are parodies/interpretations of the original songs. You may use it for private study, scholarship, research or language learning purposes only