>
 >
Hardest Part Is The Night

Hardest Part Is The Night Guitar Tabs

Bon Jovi - Hardest Part Is The Night chords, tabs, tablatures, lyrics

Guitar lessons | Add/correct | Request | Top 50 tabs Artists:  A B C D E F G H I J K L M N O P Q R S T U V W X Y Z 0-9

Hardest Part Is The Night Guitar Tabs – Bon Jovi

CD, Sheet music, Poster

Do you like Hardest Part Is The Night? Share with your friends now
TabsTabs v2
Bon Jovi - Hardest Part Is The Night
7800 Farenheit (1985)

/ = Slide
h = Hammer On
p = Pull Off
m = Mute
b = Bend
t = Tremolo

Intro:
e|---------|
B|---------|
G|---------|
D|-9/5-7-9-| x2
A|-9/5-7-9-|
E|-7/3-5-7-|

synth plays the next bit,
guitar comes in on "but he knows he's going down again"

Verse 1:
synth plays the next bit,
guitar comes in on "but he knows he's going down again"

e|-------------------10-9----10-9---------|
B|------------------------10------10------|
G|-----------------------------------9----|
D|-4-5--7-9--4-5--7--------------------11-|
A|-4-5--7-9--4-5--7-----------------------|
E|-2-3--5-7--2-3--5-----------------------|

synth plays again,
guitar fill after "they all know your name"

e|-----------------|
B|-3-2h3p2---------|
G|---------4p2-----|
D|-------------4---|
A|---------------2-|
E|-----------------|


e|-------------------10-9----10-9--------12---12/14-|
B|------------------------10------10----------------|
G|-----------------------------------9--------------|
D|-4-5--7-9--4-5--7---------------------------------|
A|-4-5--7-9--4-5--7---------------------------------|
E|-2-3--5-7--2-3--5---------------------------------|

Chorus:
e|---------------------------|
B|---------------------------|
G|---------------------------|
D|---------------------------| x3
A|---------------------------|
E|-7-9-10-3--9-10-5--9-10-7--|

e|------------------10-9----10-9----------|
B|-----------------------10------10-------|
G|----------------------------------9-----|
D|-------------------------------------11-|
A|----------------------------------------|
E|-7-9-10-3--9-10-5-----------------------|

Verse 2 (same as verse 1)
Chorus (same as 1st chorus x2)

Interlude before solo:

Guitar 1:
e|-------------------b19--|
B|------------------------|
G|------------------------|
D|-(m)9-9-9-9-9-9-9-------| x8
A|-(m)9-9-9-9-9-9-9-------|
E|-(m)7-7-7-7-7-7-7-------|

Guitar 2:
e|---------|
B|---------|
G|---------|
D|-9/5-7-9-| x2
A|-9/5-7-9-|
E|-7/3-5-7-|

Solo (Rythm Guitar same as Chorus):
e|-14-19-14-15t--------------14-19-14-15t-----------|
B|--------------10t--7p5h7--------------------------|
G|----------------------------------------9---------|
D|------------------------------------------12-11-9-|
A|--------------------------------------------------|
E|--------------------------------------------------|

e|-------------------                    -17h19-17----------------------|
B|-------------------                    ----------19-17-19-17-15-14-12-|
G|-------------------                    -------------------------------|
D|-9t-9t-9t----------don't know next bit -------------------------------|
A|-----------10-12-9-                    -------------------------------|
E|-------------------                    -------------------------------|

Verse before last chorus:
e|---------------                         -12-10-9-------|
B|---------------                         ---------10-12-|
G|---------------                         ---------------|
D|-(m)9-9-9-9-9-9 get progressively louder---------------|
A|-(m)9-9-9-9-9-9                         ---------------|
E|-(m)7-7-7-7-7-7                         ---------------|

Chorus to fade





Comments


Popular Bon Jovi tabs & chords
Novocaine Chords
Postcards From The Wasteland Chords
Bad Medecine Tabs
Joey Tabs
Just Older 1 Tabs
Lie To Me Tabs
Loves The Only Rule Intro Tabs
Wanted Dead Or Alive 1 Tabs
We Can Dance Intro Tabs
Misunderstood Ukulele


Song lyrics



↑ Back to top | Tablatures and chords are parodies/interpretations of the original songs. You may use it for private study, scholarship, research or language learning purposes only
© 2014 AZChords.com Contact us | Privacy policy | DMCA | Add/correct tabs | Request tabs | Top 50 tabs