>
 >
Get Ready

Get Ready Bass Tabs

Bon Jovi - Get Ready chords, tabs, tablatures, lyrics

Guitar lessons | Add/correct | Request | Top 50 tabs Artists:  A B C D E F G H I J K L M N O P Q R S T U V W X Y Z 0-9

Get Ready Bass Tabs – Bon Jovi

CD, Sheet music, Poster

Do you like Get Ready? Share with your friends now
Bass TabsChordsTabs
Song     :Get Ready (Bass)
Artist   :Bon Jovi

            
G||-------------------|-------------------|-------------------|
D||-------------------|-------------------|-------------------|
A||-------------------|-------------------|-------------------|
E||-------------------|-------------------|-------------------|
             
-------------------|-------------------|-------------------|-------------------|
-------------------|-------------------|-------------------|-------------------|
-------------------|-------------------|-------------------|-------------------|
-------------------|-------------------|-------------------|-------------------|
  
-------------------|----------------------|----------------------|
-------------------|----------------------|----------------------|
-------------------|----------------------|----------------------|
-------------------|-------0---------0----|-------0---------0----|

----------------------|----------------------|----------------------|
----------------------|----------------------|----------------------|
----------------------|----------------------|----------------------|
-------0---------0----|-------0---------0----|-------0---------0----|
 
----------------------|----------------------|---------------9--7-----|
----------------------|----------------------|---------------------9--|
----------------------|----------------------|------------------------|
-------0---------0----|-------0---------0----|-------0----------------|
 
-------------------------|-------------------|-------------------------|
-------------------------|-------------------|-----4--7----------------|
--7----7--7--7--4-----5--|-------------------|--5-------------4--7-----|
-------------------------|-------------------|-----------5----------0--|
         
-------------------|-------------------------|-------------------|
-------------------|-------------------------|-------------------|
-------------------|--7----7--7--7--4-----5--|-------------------|
-------------------|-------------------------|-------------------|

-------------------------|-------------------|--------------------------|
-----4--7----------------|-------------------|--------------------------|
--5-------------4--7-----|-------------------|--7--7--7--7--7--7--7--7--|
-----------5----------0--|-------------------|--------------------------|
 
--------------------------|--------------------------|
--------------------------|--------------------------|
--7--7--7--7--7--7--7--7--|--7--7--7--7--7--7--7--7--|
--------------------------|--------------------------|
 
--------------------------|---------------------|----------------------|
--------------------------|---------------------|----------------------|
--7--7--7--7--7--7--7--7--|--5------4------5----|-----4------5----4----|
--------------------------|---------------------|----------------------|
 
--------------------------|--------------------------|
--------------------------|--------------------------|
--7--7--7--7--7--7--7--7--|--7--7--7--7--7--5--6--7--|
--------------------------|--------------------------|

--------------------------|--------------------------|
--------------------------|--------------------------|
--7--7--7--7--7--7--7--7--|--7--7--7--7--7--7--7--7--|
--------------------------|--------------------------|
 
--------------------------|--------------------------|---------------------|
--------------------------|--------------------------|---------------------|
--7--7--7--7--7--7--7--7--|--7--7--7--7--7--7--7--7--|--5------4------5----|
--------------------------|--------------------------|---------------------|

----------------------|--------------------------|--------------------------|
----------------------|--------------------------|--------------------------|
-----4------5----4----|--7--7--7--7--7--7--7--7--|--7--7--7--7--7--0--2--3--|
----------------------|--------------------------|--------------------------|
 
--------------------------|--------------------------|
--------------------------|--------------------------|
-----3--3--3--3--3--3--3--|--3--3--3--3--3--3--3--3--|
--------------------------|--------------------------|
 
--------------------------|--------------------------|
--------------------------|--------------------------|
--5--5--5--5--5--5--5--5--|--5--5--5--5--5--5--5--5--|
--------------------------|--------------------------|

--------------------------|--------------------------|
--------------------------|--------------------------|
--3--3--3--3--3--3--3--3--|--3--3--3--3--3--3--3--3--|
--------------------------|--------------------------|

--------------------------|-------------------|-------------------------|
--------------------------|-------------------|-------------------------|
--5--5--5--5--5--5--5--5--|--5----------------|--------7-------7--4--5--|
--------------------------|-------------------|--0--0-------0-----------|
   
--------------------------|-------------------------|------------------------|
--------------------------|-------------------------|-----4--7---------------|
-----5--5--5--5--5--5--5--|--------7-------7--4--5--|----------------4--7----|
--------------------------|--0--0-------0-----------|-----------5------------|
 
-------------------------|--------------------------|-------------------------|
-------------------------|--------------------------|-------------------------|
--------7-------7--4--5--|-----5--5--5--5--5--5--5--|--------7-------7--4--5--|
--0--0-------0-----------|--------------------------|--0--0-------0-----------|
 
---------------------|-------------------|--------------------------|
---------------------|-------------------|--------------------------|
-----5---------------|-------------------|--7--7--7--7--7--7--7--7--|
---------------------|-------------------|--------------------------|

--------------------------|--------------------------|
--------------------------|--------------------------|
--7--7--7--7--7--7--7--7--|--7--7--7--7--7--7--7--7--|
--------------------------|--------------------------|

--------------------------|---------------------|----------------------|
--------------------------|---------------------|----------------------|
--7--7--7--7--7--7--7--7--|--5------4------5----|-----4------5----4----|
--------------------------|---------------------|----------------------|

--------------------------|--------------------------|
--------------------------|--------------------------|
--7--7--7--7--7--7--7--7--|--7--7--7--7--7--5--6--7--|
--------------------------|--------------------------|

--------------------------|--------------------------|
--------------------------|--------------------------|
--7--7--7--7--7--7--7--7--|--7--7--7--7--7--7--7--7--|
--------------------------|--------------------------|
 
--------------------------|--------------------------|---------------------|
--------------------------|--------------------------|---------------------|
--7--7--7--7--7--7--7--7--|--7--7--7--7--7--7--7--7--|--5------4------5----|
--------------------------|--------------------------|---------------------|

----------------------|--------------------------|--------------------------|
----------------------|--------------------------|--------------------------|
-----4------5----4----|--7--7--7--7--7--7--7--7--|--7--7--7--7--7--0--2--3--|
----------------------|--------------------------|--------------------------|
 
--------------------------|--------------------------|
--------------------------|--------------------------|
-----3--3--3--3--3--3--3--|--3--3--3--3--3--3--3--3--|
--------------------------|--------------------------|
 
--------------------------|--------------------------|
--------------------------|--------------------------|
--5--5--5--5--5--5--5--5--|--5--5--5--5--5--5--5--5--|
--------------------------|--------------------------|

--------------------------|--------------------------|
--------------------------|--------------------------|
--3--3--3--3--3--3--3--3--|--3--3--3--3--3--3--3--3--|
--------------------------|--------------------------|

--------------------------|-------------------|-------------------------|
--------------------------|-------------------|-------------------------|
--5--5--5--5--5--5--5--5--|--5----------------|--------7-------7--4--5--|
--------------------------|-------------------|--0--0-------0-----------|

--------------------------|-------------------------|------------------------|
--------------------------|-------------------------|-----4--7---------------|
-----5--5--5--5--5--5--5--|--------7-------7--4--5--|----------------4--7----|
--------------------------|--0--0-------0-----------|-----------5------------|

-------------------------|--------------------------|-------------------------|
-------------------------|--------------------------|-------------------------|
--------7-------7--4--5--|-----5--5--5--5--5--5--5--|--------7-------7--4--5--|
--0--0-------0-----------|--------------------------|--0--0-------0-----------|
 
------------------------|-------------------------|--------------------------|
-----4--7---------------|-------------------------|--------------------------|
----------------4--7----|--------7-------7--4--5--|-----5--5--5--5--5--5--5--|
-----------5------------|--0--0-------0-----------|--------------------------|
 
-------------------------|------------------------|-------------------------|
-------------------------|-----4--7---------------|-------------------------|
--------7-------7--4--5--|----------------4--7----|--------7-------7--4--5--|
--0--0-------0-----------|-----------5------------|--0--0-------0-----------|

--------------------------|-------------------------|---------------------|
--------------------------|-------------------------|---------------------|
-----5--5--5--5--5--5--5--|--------7-------7--4--5--|-----5---------------|
--------------------------|--0--0-------0-----------|---------------------|
 
-------------------|-------------------------|--------------------------|
-------------------|-------------------------|--------------------------|
-------------------|--------7-------7--4--5--|--5--5--5--5--5--5--5--5--|
-------------------|--0--0-------0-----------|--------------------------|
 
-------------------------|------------------------|-------------------------|
-------------------------|-----4--7---------------|-------------------------|
--------7-------7--4--5--|----------------4--7----|--------7-------7--4--5--|
--0--0-------0-----------|-----------5------------|--0--0-------0-----------|
  
--------------------------|-------------------------|------------------------|
--------------------------|-------------------------|-----4--7---------------|
--5--5--5--5--5--5--5--5--|--------7-------7--4--5--|----------------4--7----|
--------------------------|--0--0-------0-----------|-----------5------------|
  
-------------------------|--------------------------|-------------------------|
-------------------------|--------------------------|-------------------------|
--------7-------7--4--5--|--5--5--5--5--5--5--5--5--|--------7-------7--4--5--|
--0--0-------0-----------|--------------------------|--0--0-------0-----------|
 
------------------------|-------------------------|--------------------------|
-----4--7---------------|-------------------------|--------------------------|
----------------4--7----|--------7-------7--4--5--|--5--5--5--5--5--5--5--5--|
-----------5------------|--0--0-------0-----------|--------------------------|

-------------------------|------------------------|-------------------------|
-------------------------|-----4--7---------------|-------------------------|
--------7-------7--4--5--|----------------4--7----|-------------7--7--7--7--|
--0--0-------0-----------|-----------5------------|--0----0-----------------|
 
--------------------------|--------------------------|
--------------------------|--------------------------|
--7--7--7--7--7--7--7--7--|--7--7--7--7--7--7--7--7--|
--------------------------|--------------------------|
 
--------------------------|--------------------------|
--------------------------|--------------------------|
--7--7--7--7--7--7--7--7--|--7--7--7--7--7--7--7--7--|
--------------------------|--------------------------|
  
--------------------------|--------------------------|
--------------------------|--------------------------|
--7--7--7--7--7--7--7--7--|--7--7--7--7--7--7--7--7--|
--------------------------|--------------------------|
 
---------------------------|--------------------------|
---------------------------|--------------------------|
--7--7--7--7--7--7--7--6s--|--7--7--7--7--7--7--7--7--|
---------------------------|--------------------------|

--------------------------|--------------------------|
--------------------------|--------------------------|
--7--7--7--7--7--7--7--7--|--7--7--7--7--7--7--7--7--|
--------------------------|--------------------------|
 
---------------------------|--------------------------|
---------------------------|--------------------------|
--7--7--7--7--7--7--7--6s--|--7--7--7--7--7--7--7--7--|
---------------------------|--------------------------|
 
--------------------------|--------------------------|
--------------------------|--------------------------|
--7--7--7--7--7--7--7--7--|--7--7--7--7--7--7--7--7--|
--------------------------|--------------------------|

---------------------------|--------------------------|
---------------------------|--------------------------|
--7--7--7--7--7--7--7--6s--|--7--7--7--7--7--7--7--7--|
---------------------------|--------------------------|
 
--------------------------|--------------------------|
--------------------------|--------------------------|
--7--7--7--7--7--7--7--7--|--7--7--7--7--7--7--7--7--|
--------------------------|--------------------------|
 
---------------------------|--------------------------|
---------------------------|--------------------------|
--7--7--7--7--7--7--7--6s--|--7--7--7--7--7--7--7--7--|
---------------------------|--------------------------|
 
--------------------------|--------------------------|
--------------------------|--------------------------|
--7--7--7--7--7--7--7--7--|--7--7--7--7--7--7--7--7--|
--------------------------|--------------------------|
 
--------------------------|-------------------------|--------------------------|
--------------------------|-------------------------|--------------------------|
--7--7--7--7--7--7--7--7--|--------7-------7--4--5--|-----5--5--5--5--5--5--5--|
--------------------------|--0--0-------0-----------|--------------------------|

-------------------------|------------------------|-------------------------|
-------------------------|-----4--7---------------|-------------------------|
--------7-------7--4--5--|----------------4--7----|--------7-------7--4--5--|
--0--0-------0-----------|-----------5------------|--0--0-------0-----------|
  
--------------------------|-------------------------|------------------------|
--------------------------|-------------------------|-----4--7---------------|
-----5--5--5--5--5--5--5--|--------7-------7--4--5--|----------------4--7----|
--------------------------|--0--0-------0-----------|-----------5------------|

-------------------------|--------------------------|-------------------------|
-------------------------|--------------------------|-------------------------|
--------7-------7--4--5--|-----5--5--5--5--5--5--5--|--------7-------7--4--5--|
--0--0-------0-----------|--------------------------|--0--0-------0-----------|
 
------------------------|-------------------------|--------------------------|
-----4--7---------------|-------------------------|--------------------------|
----------------4--7----|--------7-------7--4--5--|-----5--5--5--5--5--5--5--|
-----------5------------|--0--0-------0-----------|--------------------------|

-------------------------|-------------------------|-------------------------|
-------------------------|-----4--7----------------|-----4--7----------------|
--------7-------7--4--5--|----------------4--7--5--|----------------4--7--5--|
--0--0-------0-----------|-----------5-------------|-----------5-------------|

------------------------|-------------------|---------------------||
-----4--7---------------|-------------------|---------------------||
----------------4--7----|--7----------------|---------------------||
-----------5------------|-------------------|--0------------------||





Comments


Popular Bon Jovi tabs & chords
Its My Life Bass Tabs
Ill Sleep When Chords
Living In Sin Chords
You Give Love A Bad Name Chords
Bed Of Roses Tabs
Dead Or Alive 1 Tabs
I Get Rush Ukulele
Lay Your Hands On Me Ukulele
Mystery Train Ukulele
She Dont Know Me Ukulele


Song lyrics



↑ Back to top | Tablatures and chords are parodies/interpretations of the original songs. You may use it for private study, scholarship, research or language learning purposes only
© 2014 AZChords.com Contact us | Privacy policy | DMCA | Add/correct tabs | Request tabs | Top 50 tabs