» » »

Every Day Tabs (ver.6)

Artists:  A B C D E F G H I J K L M N O P Q R S T U V W X Y Z # 

Every Day Tabs (ver.6)

Bon Jovi
Rating:
0/5 (0 votes)
Tabs too difficult? Try these video lessons and learn fast.
                Riff 1 This riff will play several times in the song
e-----------------------------|
b-----------------------------|      A is a power chord on the
g-----------------------------|      fifth fret of the low E
d-----------------------------|      string with two sevens on the
a----------8-------------8----|      A and D strings
E--5-5-5-5---5--5--5--5-----5-|
R1 x4
Verse: (play R1 until I show chords)
  I used to be the kind of guy
  Who'd never let you look inside
  I'd smile when I was crying
  I had nothing but a life to loose
  thought I had a lot to prove
  In my life there's no denying
  A
  Goodbye to all my yesterdays
  Goodbye so long I'm on my way
 Chorus:
  Am
  I've had enough of cryin'
  D  Am E   Am
  Bleedin' sweatin' dyin'
  Hear me when I say
  D
  Gonna live my life everyday
  Am
  I'm gonna touch the sky
  D  Am E   Am
  And I spread these wings and fly
  I aint here to play
  D
  I'm gonna live my life everyday
  ----------------|
  ----------------|
  ----------------|
  ----------------|
  -3-3-3-3--------|
  -1-1-1-1--------|

Verse: (nothing plays)
  Change everybody's feelin' strange
  Never gonna be the same
  Makes you wonder how the world keeps turning
  R1
  Life, learning how to live my life
  Learnin' how to pick my fights
  Take my shots while I'm still burning
  A
  Goodbye to all my rainy nights
  Goodbye so long I'm moving on
Chorus:
  Am
  I've had enough of cryin'
  D  Am E
  Bleedin', sweatin', dyin'
  Hear me when I say
  D
  Gonna live my life everyday
  Am
  I'm gonna touch the sky
  D  Am E
  And I spread these wings and fly
  I aint here to play
  D
  I'm gonna live my everyday
  A
  Hit the gas, take the wheel
  I've just made myself a deal

  There aint nothing gonna get in my way
  Everyday

Solo:
--------------------------------------------------------|
-7----------9-------------------------------------------|
-9b---------11b-----3b----------3--1--3b----------3b--1-|
--------------------------------------------------------|
--------------------------------------------------------|
--------------------------------------------------------|

----------------------------------------------------------|
----10-12-10-12-10-12-10-12-------10-12-10-12-10-12-10-12-|
----------------------------12----------------------------|
----------------------------------------------------------|
----------------------------------------------------------|
----------------------------------------------------------|

----------------------------------------------------------|
----12-14-12-14-12-14-12-14-------12-14-12-14-12-14-12-14-|
12--------------------------14----------------------------|
----------------------------------------------------------|
----------------------------------------------------------|
----------------------------------------------------------|

---------------------------------------------------------|
------12-14-12-14-12-14-12-14--14----12------------------|
14-------------------------------------------------------|
---------------------------------------------------------|
---------------------------------------------------------|
---------------------------------------------------------|
                                       Goodbye so long I'm movin' on
Chorus:
  Am
  I've had enough of cryin'
  D  Am E
  Bleedin' Sweatin' dyin'
  Hear me when I say
  D
  Gonna live my life everyday
  Am
  I'm gonna touch the sky
  D  Am E
  And I spread these wings and fly
  I aint here to play
  D
  I'm gonna live my life everyday
  Am          D  Am E
  I, oh I, oh I, I'm gonna live my life everyday
  D                        Am          D  Am E
  I(gonna touch the sky), Oh, I (Spread these wings and fly), Oh I
  D
  I'm gonna live my life everyday


                               Enjoy!!!
            
Tabs too difficult? Try these video lessons and learn fast.


comments powered by Disqus
↑ Back to top | Tablatures and chords are parodies/interpretations of the original songs. You may use it for private study, scholarship, research or language learning purposes only