>
 >
Edge Of A Broken Heart

Edge Of A Broken Heart Guitar Tabs

Bon Jovi - Edge Of A Broken Heart chords, tabs, tablatures, lyrics

Guitar lessons | Add/correct | Request | Top 50 tabs Artists:  A B C D E F G H I J K L M N O P Q R S T U V W X Y Z 0-9

Edge Of A Broken Heart Guitar Tabs – Bon Jovi

CD, Sheet music, Poster

Do you like Edge Of A Broken Heart? Share with your friends now
Tabs
          Another great bon jovi song, agian I put the keyboard in because its quite
important

 Intro
  
  Gtr I
                                   \1/
  PM-----------|
|------------------|------------------------|
|------------------|------------------------|
|--------------4---|-------2--(2)-(2)--(2)--|
|-----2------4-----|-----2------------------|
|---2---2--2-----0-|-(0)--------------------|
|-0----------------|------------------------|
|
| Gtr II
| PM    PM
|--------------7---|-------5--(5)-----------|
|-----5------7-----|-----5------------------|
|---4---4-/8-----6-|-(6)--------------------|
|-2----------------|------------------------|
|------------------|------------------------|
|------------------|------------------------|


  E     B        A
                               \1
  PM-----------|
|------------------|-----------------|
|------------------|-----------------|
|--------------4---|-------2--(2)----|
|-----2------4-----|-----2-----------|
|---2---2--2-----0-|-(0)-------------|
|-0----------------|-----------------
|
| PM    PM
|--------------7---|-------5--(5)----|
|-----5------7-----|-----5-----------|
|---4---4-/8-----6-|-(6)-------------|
|-2----------------|-----------------|
|------------------|-----------------|
|------------------|-----------------|


  E     B        A                     E     B        C#                 E5
                               \1                                   \1
  PM-----------|                       PM-----------|
|------------------|-----------------|------------------|-------------------|
|------------------|-----------------|------------------|-------------------|
|--------------4---|-------2--(2)----|--------------4---|-------2--(2)------|
|-----2------4-----|-----2-----------|-----2------4-----|-----2----------2--|
|---2---2--2-----0-|-(0)-------------|---2---2--2-----0-|-(0)------------2--|
|-0----------------|-----------------|-0----------------|----------------0--|
|
| PM    PM                             PM    PM
|--------------7---|-------5--(5)----|--------------7---|-------5--(5)------|
|-----5------7-----|-----5-----------|-----5------7-----|-----5-------------|
|---4---4-/8-----6-|-(6)-------------|---4---4-/8-----6-|-(6)---------------|
|-2----------------|-----------------|-2----------------|-------------------|
|------------------|-----------------|------------------|-------------------|
|------------------|-----------------|------------------|-------------------|
|
|                                                       Gtr III
|------------------|-----------------|------------------|-------------------|
|------------------|-----------------|------------------|----------------0--|
|------------------|-----------------|------------------|-------------------|
|------------------|-----------------|------------------|-------------------|
|------------------|-----------------|------------------|-------------------|
|------------------|-----------------|------------------|-------------------|


            B5    A5                      E5      B5
                                    PM|
|-------------------|-------------------|-----------------|
|-------------------|-------------------|-----------------|
|-----------4-----2-|-(2)---------------|---------4-----4-|
|-(2)-------4-----2-|-(2)---------------|-2-------4-----4-|
|-(2)-------2-----0-|-(0)---------------|-2-------2-----2-|
|-(0)---------------|---------------4-2-|-0---------------|
|
| Gtr III
|-------0---4---2-0-|-------0---5---4-2-|-----0---4---2-0-|
|-(0)-0---0---0-----|--0--0---0---0-----|-0-0---0---0-----|
|-------------------|-------------------|-----------------|
|-------------------|-------------------|-----------------|
|-------------------|-------------------|-----------------|
|-------------------|-------------------|-----------------|


      C#A5              E5      B5    A5
                                                        PM|
|---------------------|-----------------|-------------------|
|---------------------|-----------------|-------------------|
|-(4)-6-2---(2)-------|---------4-----2-|-(2)---------------|
|-(4)-6-2---(2)-------|-2-------4-----2-|-(2)---------------|
|-(2)-4-0---(0)-------|-2-------2-----0-|-(0)---------------|
|---------------------|-0---------------|---------------4-2-|
|
|-------5----5----4-2-|-----0---4---2-0-|-------0---5---4-2-|
|--0--0---0-----0-----|-0-0---0---0-----|--0--0---0---0-----|
|---------------------|-----------------|-------------------|
|---------------------|-----------------|-------------------|
|---------------------|-----------------|-------------------|
|---------------------|-----------------|-------------------|


  E5      B5            C#A5
|-----------------|---------------------|-------------------||
|-----------------|---------------------|-------------------||
|---------4-----4-|-(4)-6-2---(2)-------|-(2)---------------||
|-2-------4-----4-|-(4)-6-2---(2)-------|-(2)---------------||
|-2-------2-----2-|-(2)-4-0---(0)-------|-(0)---------------||
|-0---------------|---------------------|-------------------||
|
|-----0---4---2-0-|-------5----5----4-0-|-------0---5---4-0-||
|-0-0---0---0-----|--0--0---0-----0-----|--0--0---0---0-----||
|-----------------|---------------------|-------------------||
|-----------------|---------------------|-------------------||
|-----------------|---------------------|-------------------||
|-----------------|---------------------|-------------------||


 Verse 1
  A          B                A          B
  Gtr IV
|-0----(0)---2-|-(2)--------|-0----(0)---2-|-(2)----|
|-2----(2)---4-|-(4)--------|-2----(2)---4-|-(4)----|
|-2----(2)---4-|-(4)--------|-2----(2)---4-|-(4)----|
|--------------|------------|--------------|--------|
|--------------|------------|--------------|--------|
|--------------|------------|--------------|--------|


  A          B                C#suC#m        C#suC#m    A5
  Gtr I
|--------------|------------|--------------|-----------------|
|--------------|------------|--------------|-----------------|
|--------------|------------|--------------|------------2-2--|
|--------------|------------|--------------|------------2-2--|
|--------------|------------|--------------|------------0-0--|
|--------------|------------|--------------|-------12\-------|
|
| Gtr IV
|-0----(0)---2-|-(2)--------|-2---0-(0)----|-2---0-(0)--0-0--|
|-2----(2)---4-|-(4)--------|-2---2-(2)----|-2---2-(2)--2-2--|
|-2----(2)---4-|-(4)--------|-1---1-(1)----|-1---1-(1)--2-2--|
|--------------|------------|--------------|-----------------|
|--------------|------------|--------------|-----------------|
|--------------|------------|--------------|-----------------|


                 B5                   A5           B5
          PM---|          PM|               PM---|          PM|
|------------------|----------------|----------------|-----------------|
|------------------|----------------|----------------|-----------------|
|-(2)------------4-|-(4)------4--4--|-2------------4-|-(4)------4--4---|
|-(2)------------4-|-(4)------4--4--|-2------------4-|-(4)------4--4---|
|-(0)-----0--2-4-2-|-(2)--2-2-2--2--|-0-----0--2-4-2-|-(2)--2-2-2--2---|
|------------------|----------------|----------------|-----------------|
|
|-(0)----(0)-----2-|-(2)------2--2--|-0----(0)-----2-|-(2)------2--2---|
|-(2)----(2)-----4-|-(4)------5--4--|-2----(2)-----4-|-(4)------5--4---|
|-(2)----(2)-----4-|-(4)------4--4--|-2----(2)-----4-|-(4)------4--4---|
|------------------|----------------|----------------|-----------------|
|------------------|----------------|----------------|-----------------|
|------------------|----------------|----------------|-----------------|


  A5           B5
        PM---|          PM----|  ~~~
|----------------|-------------------|
|----------------|-------------------|
|-2------------4-|-(4)---------------|
|-2------------4-|-(4)----------[2]--|
|-0-----0--2-4-2-|-(2)--2-2-0-2------|
|----------------|-------------------|
|
|-0----(0)-----2-|-(2)------2----2---|
|-2----(2)-----4-|-(4)------5----4---|
|-2----(2)-----4-|-(4)------4----4---|
|----------------|-------------------|
|----------------|-------------------|
|----------------|-------------------|


  C#m                                  A5
                                  \1
  PM   PM
|----------------------|------------------||
|----4----5--4-5-4-----|------------------||
|------------------6---|---------------2--||
|------6-------------6-|-(6)-----(6)---2--||
|-4--------------------|---------------0--||
|----------------------|------------------||
|
|-2----0-(0)-----------|--2----0-(0)------||
|-2----2-(2)-----------|--2----2-(2)------||
|-1----1-(1)-----------|--1----1-(1)------||
|----------------------|------------------||
|----------------------|------------------||
|----------------------|------------------||


 Pre-Chorus
                   B5                 A5             B5
                         PM|                               PM|
|----------------|------------------|--------------|-------------------|
|----------------|------------------|--------------|-------------------|
|-(2)------------|------------4--4--|-2------------|------------4--4---|
|-(2)------------|------------4--4--|-2------------|------------4--4---|
|-(0)----0-2S4S2-|-(2)---2-2--2--2--|-0----0-2S4S2-|-(2)---2-2--2--2---|
|----------------|------------------|--------------|-------------------|
|
| Gtrs III, IV
|----------------|------12---11--7--|-5------------|------12---11--7---|
|----------------|------------------|--------------|-------------------|
|----------------|------------------|--------------|-------------------|
|----------------|------------------|--------------|-------------------|
|----------------|------------------|--------------|-------------------|
|----------------|------------------|--------------|-------------------|


  C#m                   B                     Bsus4             B
  PM|   PM              PM|                   PM      PM  PM
|---------------------|---------------------|-----------------|---------------||
|---------5-4-5-4-----|---------------------|---5---5---5---5-|-4-------------||
|-----6-----------6---|-----4-4-6-4-6-4-----|---4---4---4---4-|-4-----x\------||
|---6---6-----------6-|---4-------------4---|---4---4---4---4-|-4-------------||
|-4-------------------|-2-----------------2-|-2-------2---2---|-2-------------||
|---------------------|---------------------|-----------------|---------------||
|
| Gtr IV
|-4---4---4-------4---|-2---2---2-------2---|-2---2---2---2---|-2--2--2---2---||
|-5---5---5-------5---|-4---4---4-------4---|-5---5---5---5---|-4--4--4---4---||
|-6---6---6-------6---|-4---4---4-------4---|-4---4---4---4---|-4--4--4---4---||
|---------------------|---------------------|-----------------|---------------||
|---------------------|---------------------|-----------------|---------------||
|---------------------|---------------------|-----------------|---------------||


 Chorus
  E5      B5    A5                      E5      B5            C#A5
                                  PM|
|-----------------|-------------------|-----------------|----------------------|
|-----------------|-------------------|-----------------|----------------------|
|---------4-----2-|-(2)---------------|---------4-----4-|-(4)-6-2---(2)--------|
|-2-------4-----2-|-(2)---------------|-2-------4-----4-|-(4)-6-2---(2)--------|
|-2-------2-----0-|-(0)---------------|-2-------2-----2-|-(2)-4-0---(0)--------|
|-0---------------|---------------4-2-|-0---------------|----------------------|
|
| Gtr III
|-----0---4---2-0-|-------0---5---4-2-|-----0---4---2-0-|-------0----5----4-2--|
|-0-0---0---0-----|--0--0---0---0-----|-0-0---0---0-----|--0--0---0-----0------|
|-----------------|-------------------|-----------------|----------------------|
|-----------------|-------------------|-----------------|----------------------|
|-----------------|-------------------|-----------------|----------------------|
|-----------------|-------------------|-----------------|----------------------|


  E5      B5    A5                      C#5               B5
                                                                      PM|
|-----------------|-------------------|-----------------|------------------|
|-----------------|-------------------|-----------------|------------------|
|---------4-----2-|-(2)---------------|-6---------------|-4----------------|
|-2-------4-----2-|-(2)---------------|-6---------------|-4----------------|
|-2-------2-----0-|-(0)---------------|-4---------------|-2----------------|
|-0---------------|-------------------|-----------------|-------------4-2--|
|
|-----0---4---2-0-|-------0---5---4-2-|-----0---4---2-0-|-----0---5---4-2--|
|-0-0---0---0-----|--0--0---0---0-----|-2-2---2---2-----|-0-0---0---0------|
|-----------------|-------------------|-----------------|------------------|
|-----------------|-------------------|-----------------|------------------|
|-----------------|-------------------|-----------------|------------------|
|-----------------|-------------------|-----------------|------------------|


  E5      B5    A5                      E5      B5    A                A5
                                  PM|
|-----------------|-------------------|---------------5-|-(5)----(5)------||
|-----------------|-------------------|---------------5-|-(5)----(5)------||
|---------4-----2-|-(2)---------------|---------4-----6-|-(6)----(6)---2--||
|-2-------4-----2-|-(2)---------------|-2-------4-----7-|-(7)----(7)---2--||
|-2-------2-----0-|-(0)---------------|-2-------2-----7-|-(7)----(7)---0--||
|-0---------------|---------------4-2-|-0-------------5-|-(5)----(5)------||
|
|-----0---4---2-0-|-------0---5---4-2-|-----0---4---2-0-|-(0)-------------||
|-0-0---0---0-----|--0--0---0---0-----|-0-0---0---0-----|-----------------||
|-----------------|-------------------|-----------------|-----------------||
|-----------------|-------------------|-----------------|-----------------||
|-----------------|-------------------|-----------------|-----------------||
|-----------------|-------------------|-----------------|-----------------||


 Verse 2
                 B5                   A5           B5
          PM---|          PM|               PM---|          PM|
|------------------|----------------|----------------|-----------------|
|------------------|----------------|----------------|-----------------|
|-(2)------------4-|-(4)------4--4--|-2------------4-|-(4)------4--4---|
|-(2)------------4-|-(4)------4--4--|-2------------4-|-(4)------4--4---|
|-(0)-----0--2-4-2-|-(2)--2-2-2--2--|-0-----0--2-4-2-|-(2)--2-2-2--2---|
|------------------|----------------|----------------|-----------------|
|
| Gtr IV
|--0-----(0)-----2-|-(2)------2--2--|-0----(0)-----2-|-(2)------2--2---|
|--2-----(2)-----4-|-(4)------5--4--|-2----(2)-----4-|-(4)------5--4---|
|--2-----(2)-----4-|-(4)------4--4--|-2----(2)-----4-|-(4)------4--4---|
|------------------|----------------|----------------|-----------------|
|------------------|----------------|----------------|-----------------|
|------------------|----------------|----------------|-----------------|


  A5           B5                    C#m                                  A5
                                                                      \1
        PM---|            PM|  ~~~
|----------------|-----------------|-----------------------|-------------------|
|----------------|-----------------|-----4----5--4-5-4-----|-------------------|
|-2------------4-|-(4)-------------|-------------------6---|--------------2-2--|
|-2------------4-|-(4)--------[2]--|---6---6-------------6-|-(6)-----(6)--2-2--|
|-0-----0--2-4-2-|-(2)----0-2------|-4---------------------|--------------0-0--|
|----------------|-----------------|-----------------------|-------------------|
|
|-0----(0)-----2-|-(2)----2----2---|-2-----0-(0)-----------|--2----0-(0)-------|
|-2----(2)-----4-|-(4)----5----4---|-2-----2-(2)-----------|--2----2-(2)-------|
|-2----(2)-----4-|-(4)----4----4---|-1-----1-(1)-----------|--1----1-(1)-------|
|----------------|-----------------|-----------------------|-------------------|
|----------------|-----------------|-----------------------|-------------------|
|----------------|-----------------|-----------------------|-------------------|


                 B5                   A5           B5
          PM---|          PM|               PM---|          PM|
|------------------|----------------|----------------|-----------------|
|------------------|----------------|----------------|-----------------|
|-(2)------------4-|-(4)------4--4--|-2------------4-|-(4)------4--4---|
|-(2)------------4-|-(4)------4--4--|-2------------4-|-(4)------4--4---|
|-(0)-----0--2-4-2-|-(2)--2-2-2--2--|-0-----0--2-4-2-|-(2)--2-2-2--2---|
|------------------|----------------|----------------|-----------------|
|
|--0-----(0)-----2-|-(2)------2--2--|-0----(0)-----2-|-(2)------2--2---|
|--2-----(2)-----4-|-(4)------5--4--|-2----(2)-----4-|-(4)------5--4---|
|--2-----(2)-----4-|-(4)------4--4--|-2----(2)-----4-|-(4)------4--4---|
|------------------|----------------|----------------|-----------------|
|------------------|----------------|----------------|-----------------|
|------------------|----------------|----------------|-----------------|


  A5           B5                    C#m                                   A5
                                                                      \1
        PM---|            PM|  ~~~   PM|   PM
|----------------|-----------------|-----------------------|------------------||
|----------------|-----------------|-----4----5--4-5-4-----|------------------||
|-2------------4-|-(4)-------------|-------------------6---|---------------2--||
|-2------------4-|-(4)--------[2]--|---6---6-------------6-|-(6)-----(6)---2--||
|-0-----0--2-4-2-|-(2)----0-2------|-4---------------------|---------------0--||
|----------------|-----------------|-----------------------|------------------||
|
|-0----(0)-----2-|-(2)----2----2---|-2-----0-(0)-----------|--2----0-(0)------||
|-2----(2)-----4-|-(4)----5----4---|-2-----2-(2)-----------|--2----2-(2)------||
|-2----(2)-----4-|-(4)----4----4---|-1-----1-(1)-----------|--1----1-(1)------||
|----------------|-----------------|-----------------------|------------------||
|----------------|-----------------|-----------------------|------------------||
|----------------|-----------------|-----------------------|------------------||


 Pre-Chorus
                   B                  A5             B
                         PM|                               PM|
|----------------|------------------|--------------|-------------------|
|----------------|------------------|--------------|-------------------|
|-(2)------------|------------4--4--|-2------------|------------4--4---|
|-(2)------------|------------4--4--|-2------------|------------4--4---|
|-(0)----0-2S4S2-|-(2)---2-2--2--2--|-0----0-2S4S2-|-(2)---2-2--2--2---|
|----------------|------------------|--------------|-------------------|
|
| Gtrs III, IV
|----------------|------12---11--7--|-5------------|------12---11--7---|
|----------------|------------------|--------------|-------------------|
|----------------|------------------|--------------|-------------------|
|----------------|------------------|--------------|-------------------|
|----------------|------------------|--------------|-------------------|
|----------------|------------------|--------------|-------------------|


  C#m                   B                     Bsus4             B
  PM|   PM              PM|                   PM      PM  PM
|---------------------|---------------------|-----------------|---------------||
|---------5-4-5-4-----|---------------------|---5---5---5---5-|-4-------------||
|-----6-----------6---|-----4-4-6-4-6-4-----|---4---4---4---4-|-4-------------||
|---6---6-----------6-|---4-------------4---|---4---4---4---4-|-4-------------||
|-4-------------------|-2-----------------2-|-2-------2---2---|-2-----x\------||
|---------------------|---------------------|-----------------|---------------||
|
| Gtr IV
|-4---4---4-------4---|-2---2---2-------2---|-2---2---2---2---|-2--2--2---2---||
|-5---5---5-------5---|-4---4---4-------4---|-5---5---5---5---|-4--4--4---4---||
|-6---6---6-------6---|-4---4---4-------4---|-4---4---4---4---|-4--4--4---4---||
|---------------------|---------------------|-----------------|---------------||
|---------------------|---------------------|-----------------|---------------||
|---------------------|---------------------|-----------------|---------------||


 Chorus
  E5      B5    A5                      E5      B5            C#A5
                                  PM|
|-----------------|-------------------|-----------------|----------------------|
|-----------------|-------------------|-----------------|----------------------|
|---------4-----2-|-(2)---------------|---------4-----4-|-(4)-6-2---(2)--------|
|-2-------4-----2-|-(2)---------------|-2-------4-----4-|-(4)-6-2---(2)--------|
|-2-------2-----0-|-(0)---------------|-2-------2-----2-|-(2)-4-0---(0)--------|
|-0---------------|---------------4-2-|-0---------------|----------------------|
|
| Gtr III
|-----0---4---2-0-|-------0---5---4-2-|-----0---4---2-0-|-------0----5----4-2--|
|-0-0---0---0-----|--0--0---0---0-----|-0-0---0---0-----|--0--0---0-----0------|
|-----------------|-------------------|-----------------|----------------------|
|-----------------|-------------------|-----------------|----------------------|
|-----------------|-------------------|-----------------|----------------------|
|-----------------|-------------------|-----------------|----------------------|


  E5      B5    A5                      C#5               B5
                                                                      PM|
|-----------------|-------------------|-----------------|------------------|
|-----------------|-------------------|-----------------|------------------|
|---------4-----2-|-(2)---------------|-6---------------|-4----------------|
|-2-------4-----2-|-(2)---------------|-6---------------|-4----------------|
|-2-------2-----0-|-(0)---------------|-4---------------|-2----------------|
|-0---------------|-------------------|-----------------|-------------4-2--|
|
|-----0---4---2-0-|-------0---5---4-2-|-----0---4---2-0-|-----0---5---4-2--|
|-0-0---0---0-----|--0--0---0---0-----|-2-2---2---2-----|-0-0---0---0------|
|-----------------|-------------------|-----------------|------------------|
|-----------------|-------------------|-----------------|------------------|
|-----------------|-------------------|-----------------|------------------|
|-----------------|-------------------|-----------------|------------------|


  E5      B5    A5                      E5      B5    A
                                  PM|
|-----------------|-------------------|---------------5-|-(5)----(5)------||
|-----------------|-------------------|---------------5-|-(5)----(5)------||
|---------4-----2-|-(2)---------------|---------4-----6-|-(6)----(6)------||
|-2-------4-----2-|-(2)---------------|-2-------4-----7-|-(7)----(7)------||
|-2-------2-----0-|-(0)---------------|-2-------2-----7-|-(7)----(7)---4--||
|-0---------------|---------------4-2-|-0-------------5-|-(5)----(5)------||
|
|-----0---4---2-0-|-------0---5---4-2-|-----0---4---2-0-|-(0)-------------||
|-0-0---0---0-----|--0--0---0---0-----|-0-0---0---0-----|-----------------||
|-----------------|-------------------|-----------------|-----------------||
|-----------------|-------------------|-----------------|-----------------||
|-----------------|-------------------|-----------------|-----------------||
|-----------------|-------------------|-----------------|-----------------||


 Interlude
  N.C.
      PM|          PM|             PM--|  ~~~
|---------------------------|--------------------|
|---------------------------|--------------------|
|---------------------------|--------------------|
|---------------------------|------------[2]-----|
|-(4)---2--4--(4)------2--4-|--(4)---2-4------4--|
|-----4------------4--------|------4-------------|
|
| Gtr V
|-16------14-(14)-19-(19)---|-(19)---------------|
|---------------------------|--------------------|
|---------------------------|--------------------|
|---------------------------|--------------------|
|---------------------------|--------------------|
|---------------------------|--------------------|


     PM|          PM|             PM|    ~~~
|--------------------------|---------------------|
|--------------------------|---------------------|
|--------------------------|---------------------|
|--------------------------|---------------------|
|--2---0--2--(2)------0--2-|--(2)---0-2-[5]--2---|
|----2------------2--------|------2--------------|
|
|-16-----14-(14)-----------|---------------------|
|----------------12-(12)---|-(12)----------------|
|--------------------------|---------------------|
|--------------------------|---------------------|
|--------------------------|---------------------|
|--------------------------|---------------------|


  Gtr II
|--------------------------|-------------------|
|--------------------------|-------------------|
|--------------------------|-------------------|
|--------------------------|-------------------|
|--------------------------|-------------------|
|--------------------------|-------------------|
|
| Gtr III
|    PM|          PM|            PM--|  ~~~
|--------------------------|-------------------|
|--------------------------|-------------------|
|--------------------------|-------------------|
|--------------------------|-----------[2]-----|
|--4---2--4--(4)------2--4-|-(4)---2-4------4--|
|----4------------4--------|-----4-------------|
|
| Gtr V
|-16-----14-(14)-19-(19)---|-19----------------|
|--------------------------|-------------------|
|--------------------------|-------------------|
|--------------------------|-------------------|
|--------------------------|-------------------|
|--------------------------|-------------------|


|--------------------------|-------------------9--||
|--------------------------|----------------------||
|--------------------------|----------------------||
|--------------------------|----------------------||
|--------------------------|----------------------||
|--------------------------|----------------------||
|
|    PM|          PM|             PM|    ~~~
|--------------------------|----------------------||
|--------------------------|----------------------||
|--------------------------|----------------------||
|--------------------------|----------------------||
|--2---0--2--(2)------0--2-|--(2)---0-2-[5]--2----||
|----2------------2--------|------2---------------||
|
|-16-----14-(14)-----------|----------------------||
|----------------12-(12)---|-(12)-----------------||
|--------------------------|----------------------||
|--------------------------|----------------------||
|--------------------------|----------------------||
|--------------------------|----------------------||


 Guitar Solo
  Gtr II
                                                          ~~~~
|-------9-9---------9---9-9---------|--9--------------9---------------|
|-12b14-----12b14-------------------|----12b14==(12)------------------|
|----------------------------11b13r=|====================11-----------|
|-----------------------------------|---------------------------------|
|-----------------------------------|---------------------------------|
|-----------------------------------|---------------------------------|
|
| Gtr V
|-16--------14----(14)-19---(19)----|-16-------------14-(14)----------|
|-----------------------------------|------------------------12-(12)--|
|-----------------------------------|---------------------------------|
|-----------------------------------|---------------------------------|
|-----------------------------------|---------------------------------|
|-----------------------------------|---------------------------------|


|--------------------------9----12-/14--12-14-|
|-------------------9--12---------------------|
|--9-11-9-8-9-11------------------------------|
|---------------------------------------------|
|---------------------------------------------|
|---------------------------------------------|
|
|-16-------------14---(14)---19----(19)-------|
|---------------------------------------------|
|---------------------------------------------|
|---------------------------------------------|
|---------------------------------------------|
|---------------------------------------------|


|-14pb16r14pb16r14pb16r====14pb16r===14pb16r=====14pb16r=|=12----|
|--------------------------------------------------------|-------|
|--------------------------------------------------------|-------|
|--------------------------------------------------------|-------|
|--------------------------------------------------------|-------|
|--------------------------------------------------------|-------|
|
|-16-------------------14-(14)---------------------------|-------|
|---------------------------------12--------(12)---------|-17----|
|--------------------------------------------------------|-------|
|--------------------------------------------------------|-------|
|--------------------------------------------------------|-------|
|--------------------------------------------------------|-------|


                         \1/     \1/              \1
|-(12)--------|-----------------------|-----------------||
|-------------|-----------------------|-----------------||
|-------------|--14----(14)----(14)---|-(14)----(14)----||
|-------------|-----------------------|-----------------||
|-------------|-----------------------|-----------------||
|-------------|-----------------------|-----------------||
|
|-------------|-----------------------|-----------------||
|-(17)--------|-(17)------------------|-----------------||
|-------------|-----------------------|--21-------------||
|-------------|-----------------------|-----------------||
|-------------|-----------------------|-----------------||
|-------------|-----------------------|-----------------||


 Bridge
  E5         C#m          A5           B5
  Gtr I
|----------|------------|------------|------------|
|----------|------------|------------|------------|
|----------|------------|--2---------|-4----------|
|-2--------|------------|--2---------|-4----------|
|-2--------|------------|--0---------|-2------2---|
|-0--------|------------|------------|------------|
|
| Gtr IV
|-4--------|-(4)--------|--5---------|-7----------|
|-5--------|-(5)--------|-(5)--------|-7----------|
|-4--------|--6---------|-(6)--------|-8----------|
|----------|------------|------------|------------|
|----------|------------|------------|------------|
|----------|------------|------------|------------|


  E5         C#5          A5                  B5
                           PM-------------|
|----------|------------|-------------------|-----------------||
|----------|------------|-------------------|-----------------||
|----------|--6---------|-------------------|-4-4-4-4-4-------||
|-2--------|--6---------|--2--2-2-2-2-2-2-2-|-4-4-4-4-4-------||
|-2--------|--4---------|--0--0-0-0-0-0-0-0-|-2-2-2-2-2-------||
|-0--------|------------|-------------------|-----------4-2---||
|
|-4--------|-(4)--------|--5----------------|-7---------------||
|-5--------|-(5)--------|-(5)---------------|-7---------------||
|-4--------|--6---------|-(6)---------------|-8---------------||
|----------|------------|-------------------|-----------------||
|----------|------------|-------------------|-----------------||
|----------|------------|-------------------|-----------------||


 Chorus
  E5      B5    A5                      E5      B5            C#A5
                                  PM|
|-----------------|-------------------|-----------------|----------------------|
|-----------------|-------------------|-----------------|----------------------|
|---------4-----2-|-(2)---------------|---------4-----4-|-(4)-6-2---(2)--------|
|-2-------4-----2-|-(2)---------------|-2-------4-----4-|-(4)-6-2---(2)--------|
|-2-------2-----0-|-(0)---------------|-2-------2-----2-|-(2)-4-0---(0)--------|
|-0---------------|---------------4-2-|-0---------------|----------------------|
|
| Gtr III
|-----0---4---2-0-|-------0---5---4-2-|-----0---4---2-0-|-------0----5----4-2--|
|-0-0---0---0-----|--0--0---0---0-----|-0-0---0---0-----|--0--0---0-----0------|
|-----------------|-------------------|-----------------|----------------------|
|-----------------|-------------------|-----------------|----------------------|
|-----------------|-------------------|-----------------|----------------------|
|-----------------|-------------------|-----------------|----------------------|


  E5      B5    A5                      C#5               B5
|-----------------|-------------------|-----------------|----------------------|
|-----------------|-------------------|-----------------|----------------------|
|---------4-----2-|-(2)---------------|-6---------------|-4-------4------------|
|-2-------4-----2-|-(2)---------------|-6---------------|-4-------4------------|
|-2-------2-----0-|-(0)---------------|-4---------------|-2-------2------------|
|-0---------------|-------------------|-----------------|-------------4---2----|
|
|-----0---4---2-0-|-------0---5---4-2-|-----0---4---2-0-|-----0---5-----4---2--|
|-0-0---0---0-----|--0--0---0---0-----|-2-2---2---2-----|-0-0---0---0----------|
|-----------------|-------------------|-----------------|----------------------|
|-----------------|-------------------|-----------------|----------------------|
|-----------------|-------------------|-----------------|----------------------|
|-----------------|-------------------|-----------------|----------------------|


  E5      B5    A5                      E5      B5            C#A5
                                  PM|
|-----------------|-------------------|-----------------|----------------------|
|-----------------|-------------------|-----------------|----------------------|
|---------4-----2-|-(2)---------------|---------4-----4-|-(4)-6-2---(2)--------|
|-2-------4-----2-|-(2)---------------|-2-------4-----4-|-(4)-6-2---(2)--------|
|-2-------2-----0-|-(0)---------------|-2-------2-----2-|-(2)-4-0---(0)--------|
|-0---------------|---------------4-2-|-0---------------|----------------------|
|
|-----0---4---2-0-|-------0---5---4-2-|-----0---4---2-0-|-------0----4----2-0--|
|-0-0---0---0-----|--0--0---0---0-----|-0-0---0---0-----|--0--0---0-----0------|
|-----------------|-------------------|-----------------|----------------------|
|-----------------|-------------------|-----------------|----------------------|
|-----------------|-------------------|-----------------|----------------------|
|-----------------|-------------------|-----------------|----------------------|


  E5      B5    A5                      E5      B5    A5
                                  PM|
|-----------------|-------------------|-----------------||
|-----------------|-------------------|-----------------||
|---------4-----2-|-(2)---------------|---------4-----2-||
|-2-------4-----2-|-(2)---------------|-2-------4-----2-||
|-2-------2-----0-|-(0)---------------|-2-------2-----0-||
|-0---------------|---------------4-2-|-0---------------||
|
|-----0---5---4-2-|-------0---4---2-0-|-----0---5---4-2-||
|-0-0---0---0-----|--0--0---0---0-----|-0-0---0---0-----||
|-----------------|-------------------|-----------------||
|-----------------|-------------------|-----------------||
|-----------------|-------------------|-----------------||
|-----------------|-------------------|-----------------||


 Outro
                 \1/  \1/                  \1/  \1/                  \1/  \1/
|-------------------------|-------------------------|-------------------------|
|-------------------------|-------------------------|-------------------------|
|-(2)-----------(2)--(2)--|-(2)-----------(2)--(2)--|-(2)-----------(2)--(2)--|
|-(2)-----------(2)--(2)--|-(2)-----------(2)--(2)--|-(2)-----------(2)--(2)--|
|-(0)-----------(0)--(0)--|-(0)-----------(0)--(0)--|-(0)-----------(0)--(0)--|
|-------------------------|-------------------------|-------------------------|
|
|-------0---5-0-------0---|-------2---7-2-------2---|-------0---5-0-------0---|
|-----2---2------2--------|--0--4---4------4--------|-----2---2------2--------|
|--2----------------------|-------------------------|--2----------------------|
|-------------------------|-------------------------|-------------------------|
|--0----------------------|--2----------------------|--0----------------------|
|-------------------------|-------------------------|-------------------------|


                 \1/  \1/                  \1/  \1/                  \1/  \1/
|-------------------------|-------------------------|-------------------------|
|-------------------------|-------------------------|-------------------------|
|-(2)-----------(2)--(2)--|-(2)-----------(2)--(2)--|-(2)-----------(2)--(2)--|
|-(2)-----------(2)--(2)--|-(2)-----------(2)--(2)--|-(2)-----------(2)--(2)--|
|-(0)-----------(0)--(0)--|-(0)-----------(0)--(0)--|-(0)-----------(0)--(0)--|
|-------------------------|-------------------------|-------------------------|
|
|-------2---7-2-------2---|-------0---5-0-------0---|-------2---7-2-------2---|
|--0--4---4------4--------|-----2---2------2--------|--0--4---4------4--------|
|-------------------------|--2----------------------|-------------------------|
|-------------------------|-------------------------|-------------------------|
|--2----------------------|--0----------------------|--2----------------------|
|-------------------------|-------------------------|-------------------------|


                 \1/  \1/                  \1/  \1/
|-------------------------|-------------------------|
|-------------------------|-------------------------|
|-(2)-----------(2)--(2)--|-(2)-----------(2)--(2)--|
|-(2)-----------(2)--(2)--|-(2)-----------(2)--(2)--|
|-(0)-----------(0)--(0)--|-(0)-----------(0)--(0)--|
|-------------------------|-------------------------|
|
|-------0---5-0-------0---|-------2---7-2-------2---|
|-----2---2------2--------|--0--4---4------4--------|
|--2----------------------|-------------------------|
|-------------------------|-------------------------|
|--0----------------------|--2----------------------|
|-------------------------|-------------------------|


                 \1/  \1/                  \1/  \1/
|-------------------------|--------------------------*|
|-------------------------|--------------------------*|
|-(2)-----------(2)--(2)--|-(2)-----------(2)--(2)---*|
|-(2)-----------(2)--(2)--|-(2)-----------(2)--(2)---*|
|-(0)-----------(0)--(0)--|-(0)-----------(0)--(0)---*|
|-------------------------|--------------------------*|
|
|-------0---5-0-------0---|-------2---7-2-------2----*|
|-----2---2------2--------|--0--4---4------4---------*|
|--2----------------------|--------------------------*|
|-------------------------|--------------------------*|
|--0----------------------|--2-----------------------*|
|-------------------------|--------------------------*|


Tablature Legend
----------------
 h   - hammer-on
 p   - pull-off
 b   - bend
 pb  - pre-bend
 r   - bend release (if no number after the r, then release immediately)
 /\  - slide into or out of (from/to "nowhere")
 s   - legato slide
 S   - shift slide
  - natural harmonic
[n]  - artificial harmonic
n(n) - tapped harmonic
 ~   - vibrato
 tr  - trill
 T   - tap
 TP  - trem. picking
 PM  - palm muting
\n/  - tremolo bar dip; n = amount to dip
 \n  - tremolo bar down
 n/  - tremolo bar up
/n\  - tremolo bar inverted dip
 =   - hold bend; also acts as connecting device for hammers/pulls
 <>  - volume swell (louder/softer)





Comments


Popular Bon Jovi tabs & chords
Always 2 Bass Tabs
Crazy Love Chords
Every Word Was A Piece Of My Heart 1 Chords
Little City Chords
Miss Forth July Chords
One Step Closer 1 Chords
Someday Ill Be Saturday Night 1 Chords
Garageland Tabs
Breathe Ukulele
Someday Ill Be Ukulele


Song lyrics



↑ Back to top | Tablatures and chords are parodies/interpretations of the original songs. You may use it for private study, scholarship, research or language learning purposes only
© 2014 AZChords.com Contact us | Privacy policy | DMCA | Add/correct tabs | Request tabs | Top 50 tabs