» » »

Bon Jovi, Dry County Tabs (ver.1)

Artists:  A B C D E F G H I J K L M N O P Q R S T U V W X Y Z # 

Dry County Tabs (ver.1)

Bon Jovi Tabs
Rating:
0/5 (0 votes)
Dry County lessons Tabs too difficult? Try these video lessons and learn fast
                Dry County

	


This the complete tab to Bon jovi's Dry County. The 
chords are of 



Intro (Also after verse I and chorus I):

  Dm	      --------------------------- ------------- --------

	      |1.			  |2.

e-------------|---------------------------|---------- ----------------------

B-------------|---------------------------|-8~------ 10-b11--8--------------

G-7-9b10r9--7-|9~~--7-----------7-7-------|---10-9--- ----------------------

A-------------|--------10-10~~----------7-|---------- ------------------3b-0

D-------------|---------------------------|---------- ------------0-3-5-----

E-------------|---------------------------|-------------------------------- 

Verse:

Dm C Am Bb

Dm C G Dm

Dm C Am Bb

Dm C G Dm


Bridge (You can't help...):

F Gm/Bb C Bb/D

F Gm/Bb C Bb

(Now the oil's gone...):

Dm Dm/C Dm/G

Bb C


Chorus (Dry county...):

F C Bb Gm Bb

F C Bb Bb 

	  1: Dm(Into intro riff)

	  2: F



4:40

-------------------------13------------------------------------------15~-13

----------------------------------15---15-13------15-13----15-13-----------

7---------7-10-7-10-12b13---r12~~------------14-12----14-12-----14-12------

--10-7-10------------------------------------------------------------------





----------------13--(15)b17~--17~--17~r15-----17b18~-b18-r17-15----15------

----13-15-13-15-------------------------------------------------13----15---

/14------------------------------------------------------------------------






------13-(15)b17--13~~13-15-12-12h13p12---13p12--12h13p12--13-15-17--13-15-

13-15----------------------------------15---------------15---------------15






5:23

   Dm	D2 Dm D2       C     Csus2

e--------------------|--------------------|-----------------

B----6--5--6--5--5---|----5--3--3--3--3---|-----------------

G---7-7--7--7--7--7--|---5-5--5--5--5--5--|-xn (Until 5:52)-

A--7---7--7--7--7--7-|--5---5--5--5--5--5-|-----------------

D-5------------------|-3------------------|-----------------

E--------------------|--------------------|-----------------


5:29;5:40;5:52 (Second Guitar)

e-------------

B-----15h17b--

G---17--------

A-------------

D-------------

E-------------


5:52

   Dm	D2 Dm D2      

e--------------------|-------------------------------------

B----6--5--6--5--5---|--10p8p0-8p6p0-6p5p0-----------------

G---7-7--7--7--7--7--|-------------------------------------

A--7---7--7--7--7--7-|----------------------7p5------------

D-5------------------|--------------------------8-6p5--5-5-

E--------------------|-------------------------------8-----

|--------------------------------------------------------------------

|Wah-wah


/13-11-10-13-11-10-13-11-10-13-11-10-13-11-10-13-11-10-13-11-10-13-11-15b16









-12h13-10-12-9-10p9---------------------------------------------10-12b14r12

--------------------12-10-12-12--12-10-12~~-10-12-12--12-10--12------------






---------------13--8^^^--/20~~18~~17~~----------------------20~~18~~17~~---

10----10-12b14----12^^^---------------19~19-17----19-17-----------------19~

---12------------------------------------------19-------19-----------------






20-20~18-------------------------------------------------------------------

--------19-19-17----------17-19-17------17-19-17----------17-19-17---------

-----------------19-17-19----------19-17---------19-17-19----------19-17-19




				     |------------------

				     |Wah-wah

------------------------------------/17-17-17-17-17-17-17p-----

-------20b21-18----------18---------/22-22-22-22-22-22-22\21\20

-17-19---------17-19--19----17---19----------------------------

-------------------------------19------------------------------






20p18-17-18-17-------------------------------------------------------------

--------------17-19-17-----------------------------------------------------

-----------------------19-19~~--------------------10-10----1010---1010---10

-----------------------------------------------10-------10------10-----10--

-----------------------------10-10-12-10-12-10-----------------------------


								       |---

								       |Wah




12p10----10h12p10----10h12p10----10-12~^^--------------------101010121212--

------12----------12----------12---------12-12---101010121212--------------

-----------------------------------------10-12-13--------------------------



e-15-13-12-13----12----12-----------------------------------------

B-------------15----15----13-15--13----------13-------13-------13-

G-----------------------------------12-12h14----12h14----12h14----

A-----------------------------------------------------------------

D-----------------------------------------------------------------

E-----------------------------------------------------------------


      (I Think)------------------    F  F  Dm

-----------12h13p12--------------------------------------------------------

------13h15--------15-13---------------------------------------------------

12h14--------------------14-12-14^^^-10-10----------10-12-12b14r12-10------

-------------------------------------10-10-12-10-12-------------------12-10

-------------------------------------8--8--12------------------------------

-------------------------------------------10------------------------------


  F  F  Dm

-----------------------/17-17p15---17~~1518151815--------------------------

------13b15----------------------17--------------18151815------------------

10-10------12-10--10-12----------------------------------17161514--14151617

10-10-12--------12-----------------------------------------------17--------

8--8--12-------------------------------------------------------------------

------10-------------------------------------------------------------------



e-----1518------18-20b-18-17--------------------------17-18-17-------------

B-1518----15--18-------------20-18-17---17-18-17-18-20--------20-18-17-----

G-----------17------------------------19------------------------------17-19

A--------------------------------------------------------------------------

D--------------------------------------------------------------------------

E--------------------------------------------------------------------------



e---------------------------------------------------------

B---------------------------------------------------------

G-/17b19--------------------------------------------------

D--------19-17-------19-17--------19-17----17-19b22-17~~~-Phew!

A--------------20-17-------20b-17-------20----------------

E---------------------------------------------------------


Intro Riff


Verse


Chorus


 8:14

e----------------------------------------------------------------

B----------------------------------------------------------------

G-----------------17b19~-17--------------------------------------

D-15~~17b19~~17~~-----------19-17----------17---------------17~~-

A---------------------------------20p17h20----20-17----17~~------

E---------------------------------------------------20-----------


e---------------------------------b18~-r17----------- -------------------

B----18----18-20b22~~-22-22br20~~----------18-------- ---18-20b22~-18~~~-

G-19----19------------------------------------17-19-- 19-----------------

D---------------------------------------------------- -------------------

A---------------------------------------------------- -------------------

E---------------------------------------------------- -------------------


Intro riff till the end with another guitar jamming 
around which I'm

too tired to tab. Sorry, maybe some other day.

Have fun and try not to break your fingers over this 
tab :)
            

comments powered by Disqus
↑ Back to top | Bon Jovi Tabs for Dry County. Lyrics for acoustic guitar and electric guitar. Tablatures and chords are parodies/interpretations of the original songs. You may use it for private study, scholarship, research or language learning purposes only