» » »

Bon Jovi, Como Yo Nadie Te Ha Amado Tabs (ver.1)

Artists:  A B C D E F G H I J K L M N O P Q R S T U V W X Y Z # 

Como Yo Nadie Te Ha Amado Tabs (ver.1)

Bon Jovi Tabs
 Rating:
4/5 (4 votes)
Como Yo Nadie Te Ha Amado lessons Tabs too difficult? Try these video lessons and learn fast
                 aki esta los tabs de esta rola luego subo los acordes orales ps


           mi princesa tQm !!!


E      B/D#   Bm/D     A      Am        E              B
|-------------|--------7------|------------------------|-------------------|
|-9--9-9-7----|-7--7-9---5----|-4s5-5------------------|-------------------|
|-------------|---------------|-------5-5-4--4s6-4-----|----------4-6s8----|
|-------------|----------7----|-6s7-7-7-7-2--------4s6p|=4------4----------|
|-7----7-6----|-5-------------|------------------------|----4s6------------|
|-------------|---------------|------------------------|-------------------|

Verso I
  E      B     Bm  A     Am  E     B
|------------|---------|---------|--------------------------------|
|-4s5--------|---------|---------|--------------------------------|
|------------|---------|---------|---------4-6s=8-----------------|
|------------|---------|---------|-------4------------------------|
|------------|---------|---------|---4s6--------------------------|
|------------|---------|---------|--------------------------------|

                                    |----------------------------------|
                     |-------------12b13==(12)-(12)--------------------|
                                    |----------------------------------|
                                    |----------------------------------|Guitarra II
                                    |----------------------------------|
                     |-------------------------------------------------|

  E                B/D#   Bm/D                A
|-----------------------|-------------------7---------------------|
|---9---------9--9-7----|-7----------7--7-9---5-------------------|
|-----------------------|-----------------------------------------|
|-----------------------|-----------------------------------------|
|------------------6----|-5---------------------------------------|
|-----------------------|-----------------------------------------|

|-----------------------|---14pb15r(14)---------12-14-------------|
|-(12)r(12)-(12)--------|-----------------------------12h14-(14)--|
|-----------------------|-----------------------------------------| Guitarra II
|-----------------------|-----------------------------------------|
|-----------------------|-----------------------------------------|
|-----------------------|-----------------------------------------|

Am                E              B7sus4         B7
|-----------------------------|------------------------------|
|---5-----5-------------------|------------------------------|
|------------5-5----4s6p4-----|------------------------------|
|----------------4--------4s6p|-4--(4)---------2-2-2---------|
|-----------------------------|--------2-2-2s4-------2s4-2---|
|-----------------------------|----------------------------3-|

Verso II
  E      B/D#   Bm/D       A      Am        E
|-------------|----------7------|-----------------------|
|-9--9-9-7----|-7--7-7-9---5----|-^5--------------------|
|-------------|-----------------|-^5--5--4--4s6p4-------|
|-------------|-----------------|-^7--------------4s6s==|
|-7------6----|-5---------------|--------7--------------|
|-------------|-----------------|-----------------------|
                                        ~             ~
|------------------------------|------------|-------------|
|------------------------------|------------|-------------|
|------------------------------|----9--8----|-7-7s9--6----|
|-4--(4)-x-x-----2-2-2---------|------------|-------------|
|------------2s4-------2s4-2---|----7--6----|-5-5s7--4----|
|----------------------------3-|-0----------|-------------|
  Am    E             B7sus4          B7
|-------------------|---------------------------------------||
|-------------------|---------------------------------------||
|-5--9--4--13-13-13-|-13s11--(11)-x-x------9-9-9------------||
|-------------------|----------------------9-9-----11-11\---||
|-3--7--2--11-11-11-|-11s=9---(9)-x-x-9s11------------------||
|-------------------|---------------------------------------||

Precoro
  A             C#m
|--------9------------9-----|
|-----10---10-------9---9---|
|---9---------9---9-------9-|
|---------------------------|
|-0-------------------------|
|---------------9-----------|
  B                                              A             C#m
|----------------------------------------------|--------9------------9-------|
|----------------------------------------------|-----10---10-------9---9-----|
|-11----------11----------11----------11-------|---9---------9---9-------x-x-|
|-13-11-13-11-13-11-13-11-13-11-13-11-13-11--9-|-----------------------------|
|----------------------------------------------|-0---------------------------|
|----------------------------------------------|---------------9-------------|
  B7sus4                    B7
|--------------------------------------------------||
|-----12-------10---9-----7---5-----4---2-----0----||
|--------------------------------------------------||
|-/13----13s11----9---9s7---6---6s4---2---2s1------||
|--------------------------------------------------||
|--------------------------------------------------||

Coro
Chorus
  E     B               C#m   A               E     B
|----0----------------|----0----------------|----0--------------|
|----0----------------|----0----------------|----0--------------|
|---------------------|---------------------|-------4--(4)-x-x--|
|-------4-x-x-----4-6-|-------2-x-x-----2---|-------4--(4)-x-x--|
|-------2-x-x-4s6-----|-4-----0-x-x-2s4-----|-------2--(2)-x-x--|
|-0-------------------|-------------------3-|-0-----------------|
  A7
|--------------------------------------------------|
|-----14-------12----10------8---7-----5---3-----2-|
|--------------------------------------------------|
|-/14----14s12----11----11s9---7---7s5---4---4s2---|
|--------------------------------------------------|
|--------------------------------------------------|
Solo
  D            A
               ~
|-----------------------------|
|-10--10----------------------|
|-10--10-9-7-5-9--(9)-----7---|
|-------------------------7---|
|---------------------9-9---9-|
|-----------------------------|
  Bm                            G                 D                      A
                                          ~        ~~
|-----------------------------------------------|---------10----12-12-12-10-12-(12)-10-13--|
|-------------------------------------------10--|-10--/12----12----------------------------|
|-7-----7-------7-9b10r(9)-9b10r(9)-7-9---------|------------------------------------------|
|-9-7---9-7---9-------------------------7h9-----|------------------------------------------|
|-----9-----9-----------------------------------|------------------------------------------|
|-----------------------------------------------|------------------------------------------|
  G
                           ~~
|-12b13====(12)r==(12)p10--------10-------10-------10-------10----------|
|-------------------------12-----12-10----12-10----12-10----12-10-------|
|--------------------------------------11-------11-------11-------11----|
|-----------------------------------------------------------------------|
|-----------------------------------------------------------------------|
|-----------------------------------------------------------------------|
Salida
    E       B      Bm/D     A        Am         E
|---------------|----------7------|----------------------|
|--9---9-9-4----|-7--7-7h9---5----|-5-5------------------|
|---------------|-----------------|-5-5-5-5-4--4s6-4-----|
|--9-----9-7----|-7----------7----|-7-7-7-7-6--------4s6-|
|----7-7--------|-----------------|-------7-7------------|
|---------------|-----------------|----------------------|
  B                     E      B/D#   Bm/D       A
|--------------------||-------------|----------7------|
|--------------------||-9--9-9-7----|-7--7-7h9---5----|
|----------4-6s8-----||-------------|-----------------|
|-4------4-----------||--------7----|------------7----|
|----4s6-------------||-7-----------|-5---------------|
|--------------------||-------------|-----------------|
  Am      E              B
|----------------------|-------------------|
|-5-5------------------|-------------------|
|-----5-5-4--4s6-4-----|----------4-6s8----|
|-7----------------4s6p|=4------4----------|
|----------------------|----4s6------------|
|----------------------|-------------------|
            
Submit corrections

comments powered by Disqus
↑ Back to top | Bon Jovi Tabs for Como Yo Nadie Te Ha Amado. Lyrics for acoustic guitar and electric guitar. Tablatures and chords are parodies/interpretations of the original songs. You may use it for private study, scholarship, research or language learning purposes only