>
 >
Cats In The Cradle

Cats In The Cradle Guitar Tabs

Bon Jovi - Cats In The Cradle chords, tabs, tablatures, lyrics

Guitar lessons | Add/correct | Request | Top 50 tabs Artists:  A B C D E F G H I J K L M N O P Q R S T U V W X Y Z 0-9

Cats In The Cradle Guitar Tabs – Bon Jovi

CD, Sheet music, Poster

Do you like Cats In The Cradle? Share with your friends now
Tabs
INTRO

Esus2           Esus2             Esus2       Esus2   Esus2 *

----7---7-------9p7------------------------------------------12-10------------|
--------------------10---10-------7-----7---------7---------------12-11-10----|
--9---9-----9----------9--------9-----9-------7-------9--------------------12-|
--------------9---------------9-----9-------9---9---9-------------------------|
------------------------------------------------------------------------------|
------------------------------------------------------------------------------|

       D5 G5 E5

-----------------|
----------7------|
--9----7--6--9---|
-------7-----9---|
-----------------|
-----------------|

VERSE 1

  E       G         A                 E

------0---3--5--3-------5-------------0---0---0---| (repeat twice)
------0---3--3--3-----5------5--------0---0---0---|
------1---0---------2------2---2------1---2---1---|
--2---2---0----------------------2----2---2---2---|
--2-------2------------------------0--2---2---2---|
--0-------3---------------------------0---0---0---|

VERSE


--------------------------------------------------0---------------------------|
---3-----3------3------3------3------3--------------0----------3-------3------|
-----2-----2------2------2------2------2------0h1-----1----------2-------2----|
-0------------------------------------------2-----------2---------------------|
-------4-----2------0---------------------------------------------------------|
----------------------------3------2------0------------------3-------2-----0--|

-------0--0--0--0--0--0--|
-------0--0--0--0--0--0--|
----1--1--1--2--2--2--1--|
--2----2--2--2--2--2--2--|
-------------2--2--2--2--|
-------------0--0--0--0--|


CHORUS
--0--0----2--3--2--3--3--3---------------0--0----2--3--2--|
--0--0----3--3--3-----3--3----2--3--2----0--0----3--3--3--|
--1--1----2--2--2-----0--0----2--2--2----1--1----2--2--2--|
--2--2----0--0--0-----0--0----2--2--2----2--2----0--0--0--|
--2--2----------------2--2----0--0--0----2--2-------------|
--0--0----------------3--3---------------0--0-------------|

CHORUS

BRIDGE


---------------------------------------------|
---------------------------------------------|
-------5----7----4---------5----7----4-------|
--2----5----7----4----2----5----7----4----2--|
--2----3----5----2----2----3----5----2----2--|
--0-------------------0-------------------0--|


--0----0----2----2----0----0----2----2----0--|
--0----0----3----4----0----0----3----4----0--|
--1----0----2----4----1----0----2----4----1--|
--2----2----0----4----2----2----0----4----2--|
--2----3----0----2----2----3----0----2----2--|
--0----0---------2----0----0---------2----0--|

------------------------------------(10/)-12-|
---------------------------8----10-----------|
---------------------------------------------|
---------------------------------------------|
---------------------------------------------|
---------------------------------------------|


CHORUS - twice, play this part over the above chorus

Electrical guitar

  E5       D5       G5    A5       E5       D5      G5 F#x E5      G5 F#x E5
-----------------------------------------------------------------------------|
-----------------------------------------------------------------------------|
-----------7--7--7--------2--2--2-----------7--7--7--------------------------|
--2--2--2--7--7--7--5--5--2--0--2--2--2--2--7--7--7--5--4--2--2--2--5--4--2--|
--2--2--2--5--5--5--5--5--0--0--0--2--2--2--5--5--5--5--5--2--2--2--5--5--2--|
--0--0--0-----------3--3-----------0--0--0-----------3--2--0--0--0--3--2--0--|

OUTRO

  arp                         arp                  arp

-----7-----7-----9p7------------------------------------|
---------------------10---10--7------7--------7---------|
--9-----9-----9---------9-----7----7------7--------9----|
--9---------------------------9--9------9---9---9--9----|
--7---------------------------7-------------------------|
--0-----------------------------------------------------|





Comments


Popular Bon Jovi tabs & chords
I Wanna Be Loved Bass Tabs
I Am 1 Chords
Make A Memory 1 Chords
Wanted Chords
Livin On A Prayer Drum Tabs
Everyday Tabs
Ill Be There For You 2 Tabs
Joey 1 Tabs
Queen Of New Orleans 1 Tabs
This Aint A Love Song Intro 1 Tabs


Song lyrics



↑ Back to top | Tablatures and chords are parodies/interpretations of the original songs. You may use it for private study, scholarship, research or language learning purposes only
© 2014 AZChords.com Contact us | Privacy policy | DMCA | Add/correct tabs | Request tabs | Top 50 tabs