» » »

Bon Jovi, Bells Of Freedom Bass tabs (ver.2)

Artists:  A B C D E F G H I J K L M N O P Q R S T U V W X Y Z # 

Bells Of Freedom Bass tabs (ver.2)

Bon Jovi Tabs
 Rating:
4/5 (4 votes)
Bells Of Freedom lessons Tabs too difficult? Try these video lessons and learn fast
1
                Song     :Bells Of Freedom(Bass)
Artist   :Bon Jovi


G||-------|-------|-------|-------|-------|-------|-------|-------|-------|
D||-------|-------|-------|-------|-------|-------|-------|-------|-------|
A||-------|-------|-------|-------|-------|-------|-------|-------|-------|
E||-------|-------|-------|-------|-------|-------|-------|-------|-------|
  

-------|-------|-------|----------------|----------------|----------------|
-------|-------|-------|----------------|----------------|----------------|
-------|-------|-------|--2------2------|----------------|--5------5------|
-------|-------|-------|----------------|--3------3------|----------------|
   

----------------|----------------|----------------|----------------|
----------------|----------------|----------------|----------------|
--0------0------|--2------2------|----------------|--5------5------|
----------------|----------------|--3------3------|----------------|
     

----------------|---------------|----------------|----------------|
----------------|---------------|----------------|----------------|
--0------0------|--2------------|--3-------------|--0-------------|
----------------|---------------|----------------|----------------|


----------------|----------------|----------------|----------------|
----------------|----------------|----------------|----------------|
--3-------------|--0-------------|--3-------------|--0-------------|
----------------|----------------|----------------|----------------|
   

----------------|----------------|--------------------|--------------------|
----------------|----------------|--------------------|--------------------|
--3-------------|--0-------------|--5--5--5--5--5--5--|--0--0--0--0--0--0--|
----------------|----------------|--------------------|--------------------|


--------------------|--------------------|--------------------|
--------------------|--------------------|--------------------|
--2--2--2--2--2--2--|--------------------|--5--5--5--5--5--5--|
--------------------|--3--3--3--3--3--3--|--------------------|


--------------------|--------------------|--------------------|
--------------------|--------------------|--------------------|
--0--0--0--0--0--0--|--2--2--2--2--2--2--|--------------------|
--------------------|--------------------|--3--3--3--3--3--3--|


--------------------|--------------------|--------------------|
--------------------|--------------------|--------------------|
--5--5--5--5--5--5--|--0--0--0--0--0--0--|--2--2--2--2--2--2--|
--------------------|--------------------|--------------------|


--------------------|--------------------|--------------------|
--------------------|--------------------|--------------------|
--------------------|--5--5--5--5--5--5--|--0--0--0--0--0--0--|
--3--3--3--3--3--3--|--------------------|--------------------|
                                                  

--------------------|--------------------|----------------|----------------|
--------------------|--------------------|----------------|----------------|
--2--2--2--2--2--2--|--------------------|--2------2------|----------------|
--------------------|--3--3--3--3--3--3--|----------------|--3------3------|
  

----------------|----------------|----------------|----------------|
----------------|----------------|----------------|----------------|
--5------5------|--0------0------|--2------2------|----------------|
----------------|----------------|----------------|--3------3------|
   

----------------|----------------|----------------|----------------|
----------------|----------------|----------------|----------------|
--5------5------|--0------0------|--2------2------|--3-------------|
----------------|----------------|----------------|----------------|


----------------|----------------|----------------|----------------|
----------------|----------------|----------------|----------------|
--0-------------|--3-------------|--0-------------|--3-------------|
----------------|----------------|----------------|----------------|


----------------|----------------|----------------|--------------------|
----------------|----------------|----------------|--------------------|
--0-------------|--3-------------|--0-------------|--5--5--5--5--5--5--|
----------------|----------------|----------------|--------------------|
           

--------------------|--------------------|--------------------|
--------------------|--------------------|--------------------|
--0--0--0--0--0--0--|--2--2--2--2--2--2--|--------------------|
--------------------|--------------------|--3--3--3--3--3--3--|
       

--------------------|--------------------|--------------------|
--------------------|--------------------|--------------------|
--5--5--5--5--5--5--|--0--0--0--0--0--0--|--2--2--2--2--2--2--|
--------------------|--------------------|--------------------|
             

--------------------|--------------------|--------------------|
--------------------|--------------------|--------------------|
--------------------|--5--5--5--5--5--5--|--0--0--0--0--0--0--|
--3--3--3--3--3--3--|--------------------|--------------------|


--------------------|--------------------|--------------------|
--------------------|--------------------|--------------------|
--2--2--2--2--2--2--|--------------------|--5--5--5--5--5--5--|
--------------------|--3--3--3--3--3--3--|--------------------|
          

--------------------|--------------------|--------------------|
--------------------|--------------------|--------------------|
--0--0--0--0--0--0--|--2--2--2--2--2--2--|--------------------|
--------------------|--------------------|--3--3--3--3--3--3--|


--------------------|--------------------|--------------------|
--------------------|--------------------|--------------------|
--5--5--5--5--5--5--|--0--0--0--0--0--0--|--2--2--2--2--2--2--|
--------------------|--------------------|--------------------|
 

--------------------|--------------------|--------------------|
--------------------|--------------------|--------------------|
--------------------|--5--5--5--5--5--5--|--0--0--0--0--0--0--|
--3--3--3--3--3--3--|--------------------|--------------------|


--------------------|--------------------|-----|-----|-----|-----|
--------------------|--------------------|-----|-----|-----|-----|
--2--2--2--2--2--2--|--------------------|-----|-----|-----|-----|
--------------------|--3--3--3--3--3--3--|-----|-----|-----|-----|
             

--------------------|--------------------|--------------------|
--------------------|--------------------|--------------------|
--2--2--2--2--2--2--|--------------------|--5--5--5--5--5--5--|
--------------------|--3--3--3--3--3--3--|--------------------|


--------------------|--------------------|--------------------|
--------------------|--------------------|--------------------|
--0--0--0--0--0--0--|--------------------|--------------------|
--------------------|--3--3--3--3--3--3--|--3--3--3--3--3--3--|
           

--------------------|--------------------|--------------------|
--------------------|--------------------|--------------------|
--5--5--5--5--5--5--|--0--0--0--0--0--0--|--2--2--2--2--2--2--|
--------------------|--------------------|--------------------|
 

--------------------|--------------------|--------------------|
--------------------|--------------------|--------------------|
--------------------|--5--5--5--5--5--5--|--0--0--0--0--0--0--|
--3--3--3--3--3--3--|--------------------|--------------------|


--------------------|--------------------|--------------------|
--------------------|--------------------|--------------------|
--------------------|--------------------|--5--5--5--5--5--5--|
--3--3--3--3--3--3--|--3--3--3--3--3--3--|--------------------|


--------------------|--------------------|--------------------|
--------------------|--------------------|--------------------|
--0--0--0--0--0--0--|--2--2--2--2--2--2--|--------------------|
--------------------|--------------------|--3--3--3--3--3--3--|


--------------------|--------------------|--------------------|-----|
--------------------|--------------------|--------------------|-----|
--5--5--5--5--5--5--|--0--0--0--0--0--0--|--------------------|-----|
--------------------|--------------------|--3--3--3--3--3--3--|-----|


--------------------|--------------------|--------------------|
--------------------|--------------------|--------------------|
--5--5--5--5--5--5--|--0--0--0--0--0--0--|--2--2--2--2--2--2--|
--------------------|--------------------|--------------------|

--------------------|--------------------|--------------------|
--------------------|--------------------|--------------------|
--------------------|--5--5--5--5--5--5--|--0--0--0--0--0--0--|
--3--3--3--3--3--3--|--------------------|--------------------|


--------------------|--------------------|--------------------|
--------------------|--------------------|--------------------|
--------------------|--------------------|--2--2--2--2--2--2--|
--3--3--3--3--3--3--|--3--3--3--3--3--3--|--------------------|


--------------------|--------------------|--------------------|
--------------------|--------------------|--------------------|
--------------------|--5--5--5--5--5--5--|--0--0--0--0--0--0--|
--3--3--3--3--3--3--|--------------------|--------------------|

        
--------------------|-----|-----||
--------------------|-----|-----||
--5--5--5--5--5--5--|-----|-----||
--------------------|-----|-----||
            
Submit corrections

comments powered by Disqus
↑ Back to top | Bon Jovi Bass for Bells Of Freedom. Lyrics for acoustic guitar and electric guitar. 1 Tablatures and chords are parodies/interpretations of the original songs. You may use it for private study, scholarship, research or language learning purposes only