» » »

Bon Jovi, Bells Of Freedom Tabs (ver.1)

Artists:  A B C D E F G H I J K L M N O P Q R S T U V W X Y Z # 

Bells Of Freedom Tabs (ver.1)

Bon Jovi Tabs
 Rating:
4.7/5 (12 votes)
Bells Of Freedom lessons Tabs too difficult? Try these video lessons and learn fast
                INTRO:
 D5=(strum over bell cue)
E-----------------------|----------------------|
B---3--3-3--3-3--3-3--3-|-3--3-3--3-3--3-3--3--|
G---2--2-2--2-2--2-2--2-|-2--2-2--2-2--2-2--2--|  X4
D---0--0-0--0-0--0-0--0-|-0--0-0--0-0--0-0--0--|
A-----------------------|----------------------|
E-----------------------|----------------------|
         Bm         G               D6           A
I have walked all alone on these streets i call home
            Bm               G                D6         A
Streets of hope, streets of fear. Through the sidewalk cracks,
          Bm (Strum out Bm)
time disapears.

A      Bm           G          D6        A
I was lost on my knees on the eve of defeat.
e---------10----|----9-------|---------|---------| pay tab with Clean tone
b------------10-|-------10---|--12-----|--10-----| and delay
g---------------|------------|------11-|------9--|

        Bm              G           D6       A          Bm
As i choked back the tears theres a silent scream no one could hear
e--------10-----|----------9-----|-----------|--------|------------|
b------------10-|-------------10-|-----10----|---8----|-3----------|
g---------------|----------------|---------9-|------7-|-4----------|
d---------------|----------------|-----------|--------|-4----------|
a---------------|----------------|-----------|--------|-2----------|
e---------------|----------------|-----------|--------|------------|
PRE CHORUS:
 G               A
So far away from everything you know its true
 G                    A
something in side that makes you do what you gotta do
CHORUS:
            D6              A              Bm           G
Ring them bells, Ring them loud let them ring hear and now.
            D6      A                  Bm          G
Just reach out and ring the bells of freedom
            D6               A               Bm            G
When your world is crashing down like you've lost every round
                D6      A                  G
Stand your ground and ring the bells of freedom

Same rythem as previous verses (Bm G D6 A)

Up the steps of the church through the fields and the dirt.
In the dark I have seen that the sun still shines for the one who believes.
PRE CHORUS:
 G             A
so far away so full of doubt and needing proof,
 G                       A
Just close your eyes and hear the sound in side of you.
CHORUS:
Ring them bells ring them loud let them ring hear and now
just reach out and ring the bells of freedom.
When your world's crashing down like you've lost evey round
stand your groun and ring the bells of freedom
SOLO:
E-----------------------|---------------------|-----------------------|---|
B-----------------------|---------------------|-----------------------|---|
G--14--14--14-14--12-11-|-9----------9--------|--14--14--14-14--12-11-|-7-|
D--0---0---0--0---0--0--|-0----------0--------|--0---0---0--0---0--0--|-0-|
A-----------------------|---------------------|-----------------------|---|
E-----------------------|---------------------|-----------------------|---|

E-----------------------|---------------------|-----------------------|--|
B-----------------------|---------------------|-----------------------|--|
G------------7-----9----|-14-14-14-14---12-11-|-9----9------9---------|--|
D---------7-----7-----7-|---------------------|-----------------------|--|
A----7\9----------------|---------------------|-----------------------|--|
E-----------------------|---------------------|-----------------------|--|
                                                    Ring the
E---------------------------|---------------------|
B---------------------------|--------------15-----|
G----------7-----9-----9\11-|--12--14-------------|
D-------7-----7-------------|---------------------|
A--7\9----------------------|---------------------|
E---------------------------|---------------------|

Dsus2           A              Bm          G
bells Ring them loud, Let'm ring here and now
            D6        A                Bm
just reach out and ring the bells of freedom           yeah
            D6                A                 Bm          G
when your world's crashing down, like you've lost every round
            D6           Bm                G
stand your ground and ring the bells of freedom        oh, Ring the
  D6              A            Bm           G
Bells ring them loud let'em ring here and now    just reach
E-2-----2------|-0- ---0-----|-2-----2-----|-3------3------|
B---3-----3----|---3-----3---|---3-----3---|---3------3----|
G-----2------2-|-----2-----2-|-----2-----2-|-----2------2--|
D--------------|-------------|-------------|---------------|
A--------------|-------------|-------------|---------------|
E--------------|-------------|-------------|---------------|
D6                 A                    G
Out         and ring the bells of freedom           (PLAY TAB WITH SLIGHT
E-2------2-----|-0-------0--------|-------3------|--| DISTORTION)
B---3------3---|---3-------3------|-----3---3----|--|
G-----2------2-|-----2-------2----|---4-------4--|--|
D--------------|------------------|-5------------|--|
A--------------|------------------|--------------|--|
E--------------|------------------|--------------|--|
  D6              A                Bm              G
E-2-------2-----|-0-------0------|--2------2-----|-3-------3-----|--|
B---3-------3---|---3-------3----|----3------3---|---3-------3---|--|
G-----2-------2-|------2-------2-|------2------2-|-----2-------2-|--|
A---------------|----------------|---------------|---------------|--|
D---------------|----------------|---------------|---------------|--|
E---------------|----------------|---------------|---------------|--|
  D6              A                G
E-2-------2-----|-0------0-------|-------3------|-5-------5-------|--|
B---3-------3---|---3------3-----|-----3---3----|---3--------3----|--|
G-----2-------2-|-----2------2---|---4-------4--|------4--------4-|--|
D---------------|----------------|-5------------|-----------------|--|
A---------------|----------------|--------------|-----------------|--|
E---------------|----------------|--------------|-----------------|--|
  D6                          A        Bm                      G
E-----------------------|------------|-----------------------|--------|
B-----------------------|------------|-----------------------|--------|
G--12\14-----14/12---11-|-----9------|-12\14-----14/12---11--|--7-----|
D-----------------------|------------|-----------------------|--------|
A-----------------------|------------|-----------------------|--------|
E-----------------------|------------|-----------------------|--------|
   D6                         A         G5
E---------------------------|---------|---------|
B---------------------------|---------|---------|
G--12\14--------14/12----11-|----9----|--7------|
D---------------------------|---------|---------|
A---------------------------|---------|---------|
E---------------------------|---------|---------|
            
Submit corrections

comments powered by Disqus
↑ Back to top | Bon Jovi Tabs for Bells Of Freedom. Lyrics for acoustic guitar and electric guitar. Tablatures and chords are parodies/interpretations of the original songs. You may use it for private study, scholarship, research or language learning purposes only