» » »

Bed Of Roses Tabs (ver.4)

Artists:  A B C D E F G H I J K L M N O P Q R S T U V W X Y Z # 

Bed Of Roses Tabs (ver.4)

Bon Jovi
Rating:
0/5 (0 votes)

Tabs too difficult? Try these video lessons and learn fast.
                (Solo)

b = bend
¤ = Flasholetti (an overture)
10/13 = slide

e|-----------------------------------------------------------------------|
B|-------------------------------------------------13(b)15-13-10-13(b)15-|
G|-----------------------------------------------------------------------|
D|----------3-5-5(b¤)7---5-----3^5---------------------------------------|
A|-5-3-5~---------------------------3~--3^5------------------------------|
E|---------------------------------------------5~------------------------|

e|----------------13(b)15--13~-----------------10------------------------|
B|-13(b)15--13-----------------------------10----13-10-13b(15)-----------|
G|--------------------------------12(b)14--------------------------------|
D|-----------------------------------------------------------------------|
A|-----------------------------------------------------------------------|
E|-----------------------------------------------------------------------|

e|-------------13-------15(b)17--15--13-16(b)18--16(b)18-----------------|
B|------10/13----13------------------------------------------------------|
G|-----------------------------------------------------------------------|
D|-----------------------------------------------------------------------|
A|-----------------------------------------------------------------------|
E|-----------------------------------------------------------------------|
                                                Rake
e|--13^15-----------------------10--12--13~-12~-13-----------------------|
B|---------13~--13^15---------10-----------------------------------------|
G|-----------------------14~----10---------------------------------------|
D|-------------------------------12--------------------------------------|
A|-----------------------------------------------------------------------|
E|-----------------------------------------------------------------------|
            
Tabs too difficult? Try these video lessons and learn fast.


comments powered by Disqus
↑ Back to top | Tablatures and chords are parodies/interpretations of the original songs. You may use it for private study, scholarship, research or language learning purposes only