>
 >
Bad Medicine 1

Bad Medicine 1 Guitar Tabs

Bon Jovi - Bad Medicine 1 chords, tabs, tablatures, lyrics

Guitar lessons | Add/correct | Request | Top 50 tabs Artists:  A B C D E F G H I J K L M N O P Q R S T U V W X Y Z 0-9

Bad Medicine 1 Guitar Tabs – Bon Jovi

CD, Sheet music, Poster

Do you like Bad Medicine 1? Share with your friends now
ChordsTabsTabs v2Tabs v3Tabs v4Ukulele
This is what i have of "Bad Medicine" by Bon Jovi.  I know it's not 100% correct, but 
what I came up with.  You going 2 have to figure out the timing.  I have the words to it 
the tab it goes to.

Tuning-- E A D G B E

INTRO

E|-------0|-----|----------------------------|
B|-------0|-----|----------------------------|
G|--------|-----|----------------------------|
D|--------|-----|----------------------------|
A|5-4-2---|5-4-2|2--2--2--2--2--2---7---5-4-2|
E|3-2-0---|3-2-0|0--0--0--0--0--0---5---3-2-0|

                 Your love is like bad medicine.

E|-----------------------------|-------|
B|-----------------------------|-------|
G|-----------------------------|-------|
D|-----------------------------|-------|
A|7---5--------7---5---4--3----|2---4-5|
E|5---3--------5---3---2--1----|0---2-3|

  Bad medicine is what I need.  Woo o o

E|--------------------------------|
B|--------------------------------|
G|--------------------------------|
D|--------------------------------|
A|2-----2--2---2----2-2--7---5-4-2|
E|0-----0--0---0-0--0-0--5---3-2-0|

  Shake it up just like bad medicine.

E|--------------------------------------------|
B|--------------------------------------------|
G|--------------------------------------------|
D|--------------------------------------------|
A|7------------5-----------------7----5---4--3|
E|5------------3-----------------5----3---2--1|

  There ain't no doctor that can cure my disease.

E|----------------------------|---------------|
B|----------------------------|---------------|
G|----------------------------|---------------|
D|------------3-2--3-2-1------|------------3-2|
A|2-3-1-3-0-3------------4-5-3|2-3-1-3-0-3----|
E|----------------------------|---------------|

                                                Bad medicine.
-----------------------------------------------------------------------

E|------------------------------------------------------|
B|------------------------------------------------------|
G|------------------------------------------------------|
D|----------------------3--2--3--2-1--------------------|
A|2--3-----1--3--0-3----------------------4-------5----3|
E|------------------------------------------------------|

  I ain't got a fever, got a permenant disease.  And it'll

E|---------------------------------------------------|
B|---------------------------------------------------|
G|---------------------------------------------------|
D|---------------------------3-2----------3-2-1------|
A|2--3-----1--3--0-3----------------------------4-5-3|
E|---------------------------------------------------|

  take more than a doctor to prescribe a remedy.

E|----------------------------------------------|
B|----------------------------------------------|
G|----------------------------------------------|
D|----------3-2-----2-------------------3--2---2|
A|--2-3-1-3------------2--3---1----3------------|
E|----------------------------------------------|

  I got lots of money but it isn't what i need.

E|-------------------------------------------------------------|
B|-------------------------------------------------------------|
G|-------------------------------------------------------------|
D|------------------------3-------2----------3----2--1---------|
A|2--3---1----3----0---3---------------------------------4--5-3|
E|-------------------------------------------------------------|

  Gonna take more than a shot to get this poison out of me.

E|--------------------------------------------|
B|--------------------------------------------|
G|--------------------------------------------|
D|--------------------------------------------|
A|----2--2---2---2----2---1----3----3--3-3-3-2|
E|--------------------------------------------|

  And I got all the symptoms count 'em 1 2 3.

E|------------|
B|------------|
G|------------|
D|------------|
A|2------4---5|
E|0------2---3|

  First you need.  That's what you get for falling in love.

E|------------|
B|------------|
G|------------|
D|------------|
A|5-----4----2|
E|3-----2----0|

  Then you bleed.  You get a little but it's never enough.

E|-----------|
B|-----------|
G|-----------|
D|-----------|
A|4---5-----7|
E|2---3-----5|

  On your knees.  That's what you get for falling in love.

E|------------------------|--------------------------|
B|------------------------|--------------------------|
G|------------------------|--------------------------|
D|5-----------------------|3-------------------------|
A|3-----------------------|1-------------------------|
E|------------------------|--------------------------|

  Now this boys addicted cause your kiss is the drug.

E|-------|-------------------------------|
B|-------|-------------------------------|
G|-------|-------------------------------|
D|-------|-------------------------------|
A|2---4-5|----2--2--2--2--2--2-7---5-4--2|
E|0---2-3|----0--0--0--0--0--0-5---3-2--0|

  Woo o o.  Your love is like bad medicine.

E|-----------------------------|-------|
B|-----------------------------|-------|
G|-----------------------------|-------|
D|-----------------------------|-------|
A|7---5--------7---5---4--3----|2---4-5|
E|5---3--------5---3---2--1----|0---2-3|

  Bad medicine is what I need.  Woo o o

E|--------------------------------|
B|--------------------------------|
G|--------------------------------|
D|--------------------------------|
A|2-----2--2---2----2-2--7---5-4-2|
E|0-----0--0---0-0--0-0--5---3-2-0|

  Shake it up just like bad medicine.

E|--------------------------------------------|
B|--------------------------------------------|
G|--------------------------------------------|
D|--------------------------------------------|
A|7------------5-----------------7----5---4--3|
E|5------------3-----------------5----3---2--1|

  There ain't no doctor that can cure my disease.

E|-----------------------------|------|
B|-----------------------------|------|
G|-----------------------------|----5b|
D|x-x-5-x-5-5-x-x-5-x-5-5-x-x-5|------|
A|x-x-3-x-3-3-x-x-3-x-3-3-x-x-3|3/5---|
E|-----------------------------|------|

REPEAT EVERYTHING ON THE BOTTOM OF THE DOTTED LINE TWICE

E|-----------------------------|------|
B|-----------------------------|------|
G|-----------------------------|----5b|
D|x-x-5-x-5-5-x-x-5-x-5-5-x-x-5|------|
A|x-x-3-x-3-3-x-x-3-x-3-3-x-x-3|3/5---|
E|-----------------------------|------|

THEN PLAY SOLO...I HAVE NO CLUE HOW TO PLAY IT.

  I need a respirator cause i'm running out of breath.
  Your an all night generator wrapped in stockings and a dress.

E|---------------------------|--------------------------|
B|---------------------------|--------------------------|
G|---------------------------|--------------------------|
D|---------------------------|--------------------------|
A|1-----1---1----1----1-1-1-1|-1---1----1----1---1-1-1-1|
E|---------------------------|--------------------------|

  When you find your medicine you take what you can get.

  Cause if there's something better baby well they havn't found it yet.

E|-------|-------------------------------|
B|-------|-------------------------------|
G|-------|-------------------------------|
D|-------|-------------------------------|
A|2---4-5|----2--2--2--2--2--2-7---5-4--2|
E|0---2-3|----0--0--0--0--0--0-5---3-2--0|

  Woo o o.  Your love is like bad medicine.

E|-----------------------------|-------|
B|-----------------------------|-------|
G|-----------------------------|-------|
D|-----------------------------|-------|
A|7---5--------7---5---4--3----|2---4-5|
E|5---3--------5---3---2--1----|0---2-3|

  Bad medicine is what I need.  Woo o o

E|--------------------------------|
B|--------------------------------|
G|--------------------------------|
D|--------------------------------|
A|2-----2--2---2----2-2--7---5-4-2|
E|0-----0--0---0-0--0-0--5---3-2-0|

  Shake it up just like bad medicine.

E|--------------------------------------------|
B|--------------------------------------------|
G|--------------------------------------------|
D|--------------------------------------------|
A|7------------5-----------------7----5---4--3|
E|5------------3-----------------5----3---2--1|

  There ain't no doctor that can cure my disease.





Comments


Popular Bon Jovi tabs & chords
Ill Be There For You 2 Bass Tabs
Its My Life 2 Bass Tabs
Last Chance Train Chords
Love Me Back To Life 1 Chords
August 7 4 15 Tabs
Blame It On The Love Of Rock And Roll Tabs
I Want To Be Loved Tabs
Runaway 1 Tabs
Born To Be My Baby Ukulele
Bounce Ukulele


Song lyrics



↑ Back to top | Tablatures and chords are parodies/interpretations of the original songs. You may use it for private study, scholarship, research or language learning purposes only
© 2014 AZChords.com Contact us | Privacy policy | DMCA | Add/correct tabs | Request tabs | Top 50 tabs