>
 >
Any Other Day

Any Other Day Guitar Tabs

Bon Jovi - Any Other Day chords, tabs, tablatures, lyrics

Guitar lessons | Add/correct | Request | Top 50 tabs Artists:  A B C D E F G H I J K L M N O P Q R S T U V W X Y Z 0-9

Any Other Day Guitar Tabs – Bon Jovi

CD, Sheet music, Poster

Do you like Any Other Day? Share with your friends now
ChordsChords v2Chords v3TabsUkulele


Intro:

E---------------------------|
B---6---6/1---1-1/2---4/1---|
G---------------------------|
D---------------------------|
A---------------------------|
E---------------------------|


E---------------------------|
B---------------------------|
G---6-6-6-6-6-6-6-6-----3---|
D---6-6-6-6-6-6-6-6-----3---|
A---4-4-4-4-4-4-4-4-----1---|
E---------------------------|
the alarm clock rings its 6:45

E---------------------------|
B---------------------------|
G---------------------------|
D---4-4-4-4-4-4-4-4-----6---|
A---4-4-4-4-4-4-4-4-----6---|
E---2-2-2-2-2-2-2-2-----4---|
must hit that snooze button atleast 3 times

E---------------------------|
B---------------------------|
G---3-3-3-3-3-3-3-3---------|
D---3-3-3-3-3-3-3-3---------|
A---1-1-1-1-1-1-1-1---------|
E---------------------------|
our office this morning was still last night

E---------------------------|
B---------------------------|
G---------------------------|
D---6-6-6-6-6-6-6-6---------|
A---6-6-6-6-6-6-6-6---------|
E---4-4-4-4-4-4-4-4---------|
on any other day just mine wont die


*in this part it was also played with the solo on the intro part

Guitar 1
E---------------------------|
B---------------------------|
G---6-6-6-6-6-6-6-6-----3---|
D---6-6-6-6-6-6-6-6-----3---|
A---4-4-4-4-4-4-4-4-----1---|
E---------------------------|
traffics backed up 20 miles of the east

E---------------------------|
B---------------------------|
G---------------------------|
D---4-4-4-4-4-4-4-4-----6---|
A---4-4-4-4-4-4-4-4-----6---|
E---2-2-2-2-2-2-2-2-----4---|
must it hit every damn whether it lie on the street

E---------------------------|
B---------------------------|
G---3-3-3-3-3-3-3-3---------|
D---3-3-3-3-3-3-3-3---------|
A---1-1-1-1-1-1-1-1---------|
E---------------------------|
with the man says its gonna rain for the week

E---------------------------|
B---------------------------|
G---------------------------|
D---6-6-6-6-6-6-6-6---------|
A---6-6-6-6-6-6-6-6---------|
E---4-4-4-4-4-4-4-4---------|
hey, what can you do

Guitar 2:
E---------------------------|
B---6---6/1---1-1/2---4/1---|
G---------------------------|
D---------------------------|
A---------------------------|
E---------------------------|

Chorus:

E---------------------------|
B---------------------------|
G---------------------------|
D---4-4-4-4-4-4-4-4---------|
A---4-4-4-4-4-4-4-4---------|
E---2-2-2-2-2-2-2-2---------|
im on any other day

E---------------------------|
B---------------------------|
G---6-6-6-6-6-6-6-6---------|
D---6-6-6-6-6-6-6-6---------|
A---4-4-4-4-4-4-4-4---------|
E---------------------------|
at my blue eyes crying

E---------------------------|
B---------------------------|
G---------------------------|
D---4-4-4-4-4-4-4-4---------|
A---4-4-4-4-4-4-4-4---------|
E---2-2-2-2-2-2-2-2---------|
i can tell the world

E---------------------------|
B---------------------------|
G---6-6-6-6-6-6-6-6---------|
D---6-6-6-6-6-6-6-6---------|
A---4-4-4-4-4-4-4-4---------|
E---------------------------|
atleast im trying

E---------------------------|
B---------------------------|
G---3-3-3-3-3-3-3-3---------|
D---3-3-3-3-3-3-3-3---------|
A---1-1-1-1-1-1-1-1---------|
E---------------------------|
the cloud is breaking

E------------------------------|
B------------------------------|
G----------------------3-5-6-8-|
D---4-4-4-4-4-4-4-4----3-5-6-8-|
A---4-4-4-4-4-4-4-4----1-3-4-6-|
E---2-2-2-2-2-2-2-2------------|
the sun is shining new

E---------------------------|
B---------------------------|
G---------------------------|
D---6-6-6-6-6-6-6-6---------|
A---6-6-6-6-6-6-6-6---------|
E---4-4-4-4-4-4-4-4---------|
for me and you

E---------------------------|
B---------------------------|
G---------------------------|
D---4-4-4-4-4-4-4-4---------|
A---4-4-4-4-4-4-4-4---------|
E---2-2-2-2-2-2-2-2---------|
im on any other day

E---------------------------|
B---------------------------|
G---6-6-6-6-6-6-6-6---------|
D---6-6-6-6-6-6-6-6---------|
A---4-4-4-4-4-4-4-4---------|
E---------------------------|
am i just going crazy

E---------------------------|
B---------------------------|
G---------------------------|
D---4-4-4-4-4-4-4-4---------|
A---4-4-4-4-4-4-4-4---------|
E---2-2-2-2-2-2-2-2---------|
the grace of doing that

E---------------------------|
B---------------------------|
G---6-6-6-6-6-6-6-6---------|
D---6-6-6-6-6-6-6-6---------|
A---4-4-4-4-4-4-4-4---------|
E---------------------------|
is gonna save me

E---------------------------|
B---------------------------|
G---3-3-3-3-----------------|
D---3-3-3-3--4-4-4-4--------|
A---1-1-1-1--4-4-4-4--------|
E------------2-2-2-2--------|
baby look at love

E---------------------------|
B---------------------------|
G---------------------------|
D---6-6-6-6-6-6-6-6---------|
A---6-6-6-6-6-6-6-6---------|
E---4-4-4-4-4-4-4-4---------|
who pulled us through

Verse2:

*also played with the solo on intro

E---------------------------|
B---------------------------|
G---6-6-6-6-6-6-6-6-----3---|
D---6-6-6-6-6-6-6-6-----3---|
A---4-4-4-4-4-4-4-4-----1---|
E---------------------------|
on any other day am i just stay in vest

E---------------------------|
B---------------------------|
G---------------------------|
D---4-4-4-4-4-4-4-4-----6---|
A---4-4-4-4-4-4-4-4-----6---|
E---2-2-2-2-2-2-2-2-----4---|
tell me to see a blankets with a mop over my head

E---------------------------|
B---------------------------|
G---3-3-3-3-3-3-3-3---------|
D---3-3-3-3-3-3-3-3---------|
A---1-1-1-1-1-1-1-1---------|
E---------------------------|
put your tables in the morning just to get a little edge

E---------------------------|
B---------------------------|
G---------------------------|
D---6-6-6-6-6-6-6-6---------|
A---6-6-6-6-6-6-6-6---------|
E---4-4-4-4-4-4-4-4---------|
and made it just keep up and down and do it all again

Guitar2:
E---------------------------|
B---6---6/1---1-1/2---4/1---|
G---------------------------|
D---------------------------|
A---------------------------|
E---------------------------|

Pre-Chorus:

E---------------------------|
B---------------------------|
G---3-3-3-3-3-3-3-3---------|
D---3-3-3-3-3-3-3-3---------|
A---1-1-1-1-1-1-1-1---------|
E---------------------------|
hey,

E---------------------------|
B---------------------------|
G---------------------------|
D---4-4-4-4-4-4-4-4---------|
A---4-4-4-4-4-4-4-4---------|
E---2-2-2-2-2-2-2-2---------|
i like where this is goin'

E---------------------------|
B---------------------------|
G---3-3-3-3-3-3-3-3---------|
D---3-3-3-3-3-3-3-3---------|
A---1-1-1-1-1-1-1-1---------|
E---------------------------|
yeah coz i know

E---------------------------|
B---------------------------|
G---------------------------|
D---6-6-6-6-6-6-6-6---------|
A---6-6-6-6-6-6-6-6---------|
E---4-4-4-4-4-4-4-4---------|
where it's been

Chorus:

E---------------------------|
B---------------------------|
G---------------------------|
D---4-4-4-4-4-4-4-4---------|
A---4-4-4-4-4-4-4-4---------|
E---2-2-2-2-2-2-2-2---------|
im on any other day

E---------------------------|
B---------------------------|
G---6-6-6-6-6-6-6-6---------|
D---6-6-6-6-6-6-6-6---------|
A---4-4-4-4-4-4-4-4---------|
E---------------------------|
at my blue eyes crying

E---------------------------|
B---------------------------|
G---------------------------|
D---4-4-4-4-4-4-4-4---------|
A---4-4-4-4-4-4-4-4---------|
E---2-2-2-2-2-2-2-2---------|
i can tell the world

E---------------------------|
B---------------------------|
G---6-6-6-6-6-6-6-6---------|
D---6-6-6-6-6-6-6-6---------|
A---4-4-4-4-4-4-4-4---------|
E---------------------------|
atleast im trying

E---------------------------|
B---------------------------|
G---3-3-3-3-3-3-3-3---------|
D---3-3-3-3-3-3-3-3---------|
A---1-1-1-1-1-1-1-1---------|
E---------------------------|
the cloud is breaking

E------------------------------|
B------------------------------|
G----------------------3-5-6-8-|
D---4-4-4-4-4-4-4-4----3-5-6-8-|
A---4-4-4-4-4-4-4-4----1-3-4-6-|
E---2-2-2-2-2-2-2-2------------|
the sun is shining new

E---------------------------|
B---------------------------|
G---------------------------|
D---6-6-6-6-6-6-6-6---------|
A---6-6-6-6-6-6-6-6---------|
E---4-4-4-4-4-4-4-4---------|
for me and you

E---------------------------|
B---------------------------|
G---------------------------|
D---4-4-4-4-4-4-4-4---------|
A---4-4-4-4-4-4-4-4---------|
E---2-2-2-2-2-2-2-2---------|
im on any other day

E---------------------------|
B---------------------------|
G---6-6-6-6-6-6-6-6---------|
D---6-6-6-6-6-6-6-6---------|
A---4-4-4-4-4-4-4-4---------|
E---------------------------|
am i just going crazy

E---------------------------|
B---------------------------|
G---------------------------|
D---4-4-4-4-4-4-4-4---------|
A---4-4-4-4-4-4-4-4---------|
E---2-2-2-2-2-2-2-2---------|
the grace of doing that

E---------------------------|
B---------------------------|
G---6-6-6-6-6-6-6-6---------|
D---6-6-6-6-6-6-6-6---------|
A---4-4-4-4-4-4-4-4---------|
E---------------------------|
is gonna save me

E---------------------------|
B---------------------------|
G---3-3-3-3-----------------|
D---3-3-3-3--4-4-4-4--------|
A---1-1-1-1--4-4-4-4--------|
E------------2-2-2-2--------|
baby look at love

E---------------------------|
B---------------------------|
G---------------------------|
D---6-6-6-6-6-6-6-6---------|
A---6-6-6-6-6-6-6-6---------|
E---4-4-4-4-4-4-4-4---------|
who pulled us through

im on any other day

Solo:

E-------------------------------------------------|
B----------------------------------6-4-6/7*-6*----|
G---6-5-6---6-5-6-8--6-5-6---6-5-6----------------|
D---------6----------------6----------------------|
A-------------------------------------------------|
E-------------------------------------------------|

E----------------------------------------------------|
B---4-4-------4/6*-4*-4*-----------------------------|
G-------6-5-6------------6-6/5-5/3-3/1-1-------------|
D----------------------------------------4-4---------|
A----------------------------------------------------|
E----------------------------------------------------|

*this part was also played with the solo on intro part

Guitar1:
E---------------------------|
B---------------------------|
G---6-6-6-6-6-6-6-6-----3---|
D---6-6-6-6-6-6-6-6-----3---|
A---4-4-4-4-4-4-4-4-----1---|
E---------------------------|
when our clock rings its 6:45

E---------------------------|
B---------------------------|
G---------------------------|
D---4-4-4-4-4-4-4-4-----6---|
A---4-4-4-4-4-4-4-4-----6---|
E---2-2-2-2-2-2-2-2-----4---|
i like waking up if you're on my mind

E---------------------------|
B---------------------------|
G---3-3-3-3-3-3-3-3---------|
D---3-3-3-3-3-3-3-3---------|
A---1-1-1-1-1-1-1-1---------|
E---------------------------|
no one there saving me

E---------------------------|
B---------------------------|
G---------------------------|
D---6-6-6-6-6-6-6-6---------|
A---6-6-6-6-6-6-6-6---------|
E---4-4-4-4-4-4-4-4---------|
one more time

Guitar2:
E---------------------------|
B---6---6/1---1-1/2---4/1---|
G---------------------------|
D---------------------------|
A---------------------------|
E---------------------------|

Chorus:

E---------------------------|
B---------------------------|
G---------------------------|
D---4-4-4-4-4-4-4-4---------|
A---4-4-4-4-4-4-4-4---------|
E---2-2-2-2-2-2-2-2---------|
im on any other day

E---------------------------|
B---------------------------|
G---6-6-6-6-6-6-6-6---------|
D---6-6-6-6-6-6-6-6---------|
A---4-4-4-4-4-4-4-4---------|
E---------------------------|
at my blue eyes crying

E---------------------------|
B---------------------------|
G---------------------------|
D---4-4-4-4-4-4-4-4---------|
A---4-4-4-4-4-4-4-4---------|
E---2-2-2-2-2-2-2-2---------|
i can tell the world

E---------------------------|
B---------------------------|
G---6-6-6-6-6-6-6-6---------|
D---6-6-6-6-6-6-6-6---------|
A---4-4-4-4-4-4-4-4---------|
E---------------------------|
atleast im trying

E---------------------------|
B---------------------------|
G---3-3-3-3-3-3-3-3---------|
D---3-3-3-3-3-3-3-3---------|
A---1-1-1-1-1-1-1-1---------|
E---------------------------|
the cloud is breaking

E------------------------------|
B------------------------------|
G----------------------3-5-6-8-|
D---4-4-4-4-4-4-4-4----3-5-6-8-|
A---4-4-4-4-4-4-4-4----1-3-4-6-|
E---2-2-2-2-2-2-2-2------------|
the sun is shining new

E---------------------------|
B---------------------------|
G---------------------------|
D---6-6-6-6-6-6-6-6---------|
A---6-6-6-6-6-6-6-6---------|
E---4-4-4-4-4-4-4-4---------|
for me and you

E---------------------------|
B---------------------------|
G---------------------------|
D---4-4-4-4-4-4-4-4---------|
A---4-4-4-4-4-4-4-4---------|
E---2-2-2-2-2-2-2-2---------|
im on any other day

E---------------------------|
B---------------------------|
G---6-6-6-6-6-6-6-6---------|
D---6-6-6-6-6-6-6-6---------|
A---4-4-4-4-4-4-4-4---------|
E---------------------------|
am i just going crazy

E---------------------------|
B---------------------------|
G---------------------------|
D---4-4-4-4-4-4-4-4---------|
A---4-4-4-4-4-4-4-4---------|
E---2-2-2-2-2-2-2-2---------|
the grace of doing that

E---------------------------|
B---------------------------|
G---6-6-6-6-6-6-6-6---------|
D---6-6-6-6-6-6-6-6---------|
A---4-4-4-4-4-4-4-4---------|
E---------------------------|
is gonna save me

E---------------------------|
B---------------------------|
G---3-3-3-3-----------------|
D---3-3-3-3--4-4-4-4--------|
A---1-1-1-1--4-4-4-4--------|
E------------2-2-2-2--------|
baby look at love

E---------------------------|
B---------------------------|
G---------------------------|
D---6-6-6-6-6-6-6-6---------|
A---6-6-6-6-6-6-6-6---------|
E---4-4-4-4-4-4-4-4---------|
who pulled us through

im on any other day

i finally made a tab of this song... hope you like it... its 95% correct... 5% was on 
lyrics... hehehehehehe.... rate it please...
Rock On....
                                          Triani-Sesiha





Comments


Popular Bon Jovi tabs & chords
Bells Of Freedom Bass Tabs
Bad Medicine Chords
Ill Be There For You 1 Chords
Have A Nice Day 1 Tabs
Hearts Breaking Even Tabs
Only Lonely Tabs
You Give Love A Bad Name 5 Tabs
Another Reason To Believe Ukulele
Distance Ukulele
Lay Your Hands On Me Ukulele


Song lyrics



↑ Back to top | Tablatures and chords are parodies/interpretations of the original songs. You may use it for private study, scholarship, research or language learning purposes only
© 2014 AZChords.com Contact us | Privacy policy | DMCA | Add/correct tabs | Request tabs | Top 50 tabs