» » »

Bon Jovi, Always Tabs (ver.7)

Artists:  A B C D E F G H I J K L M N O P Q R S T U V W X Y Z # 

Always Tabs (ver.7)

Bon Jovi Tabs
Rating:
0/5 (0 votes)
Always lessons Tabs too difficult? Try these video lessons and learn fast
                I don't know the tuning or timing for the guitar solo in this song
I got a Bon Jovi guitar tabs book before and I don't know if this is right so
people, try to play this and send in comments about what you think of this tab.
I will put the whole song on soon.

h - hammer on
p - pull off
/ - slide     (/ for sliding up   \ for sliding down)
b - bend
b (half) - half bend     (semi tone bend)
b (full) - full bend     (whole tone bend)

Definitions of hammer on, bend and pull off
These definitions are the definitions that is in the book


hammer on - strike the first note with one finger, then sound the second note (on same 
with another finger by fretting without picking

pull off - place both fingers on the note to be sounded, strike the first note without 
pull the finger off to sound the second note

slide - stike the first note and then slide the same fret hand finger up or down to the 
note. the second note is not struck

bend - strike the note and bend up

semi tone bend - strike the note and bend up a semi tone (1/2 step)

whole tone bend - strike the note and bend up a whole tone (full step)


     Bon Jovi - Always - Guitar Solo

     With Distortion and Heavy Chorus

e|----------------------------------|--------------------------|
B|----------------------------------|--------------------------|
G|-----4h6-------4-6----------------|--------------------------|
D|-4h6-----4h6-6-----4h6-4b(full)p2-|-4-------------2-4b(full)-|
A|----------------------------------|---2-2-----2-4------------|
E|----------------------------------|-------2/4----------------|

e|-----------------------------------------|--------------------12-12-|
B|-----------------------------------------|-----------------------12-|
G|-----------------------------------------|--------------------------|
D|-2-------2-4b(full)-2-----2-4-4b(half)p2-|---2-4-4b(full)p2-4-------|
A|---4-2-4--------------4-2----------------|-4------------------------|
E|-----------------------------------------|--------------------------|

e|-12\9--9\7--7/12--12\9--9\7--7----------------|
B|-12\9--9\7--7/12--12\9--9\7--7----------------|
G|----------------------------------11b(full)p7-|
D|--------------------------------9-------------|
A|----------------------------------------------|
E|----------------------------------------------|

e|-----------------------------12-----|
B|-----12b(full)-----------14--12--14-|
G|--11------------0--9/13-------------|
D|------------------------------------|
A|------------------------------------|
E|------------------------------------|

e|----12----------12-------12-------------------12-14b(full)p12-|
B|-12/14-12----12/14-12----12h14-14-12----12-14-----------------|
G|----------13----------13-------------13-----------------------|
D|--------------------------------------------------------------|
A|--------------------------------------------------------------|
E|--------------------------------------------------------------|

e|-14-16b(half)-14b(full)-|
B|------------------------|
G|------------------------|
D|------------------------|
A|------------------------|
E|------------------------|
            
Submit corrections

comments powered by Disqus
↑ Back to top | Bon Jovi Tabs for Always. Lyrics for acoustic guitar and electric guitar. Tablatures and chords are parodies/interpretations of the original songs. You may use it for private study, scholarship, research or language learning purposes only