» » »

Bon Jovi, Always Bass tabs (ver.1)

Artists:  A B C D E F G H I J K L M N O P Q R S T U V W X Y Z # 

Always Bass tabs (ver.1)

Bon Jovi Tabs
 Rating:
4/5 (4 votes)
Always lessons Tabs too difficult? Try these video lessons and learn fast
1
                INTRO
G ----------------------
D ----------------------
A ----------------------
E --0--0--0-0-0--0-0-0--

G ----------------------
D ----------------------
A --0--0--0-0-0--0-0-0--
E ----------------------

G -----------------------|R
D -----------------------|E
A --4-4-4-4--2-2-2-2--0--|S
E -----------------------|T

1st Verse (play lightly with piano) play this twice
G --------------------------
D --------------------------
A --4--------------2-2-2-2--
E ------4---5---2-----------

GOING INTO CHORUS ("I can't sing a love
song..........)
G -------------------------
D -------------------------
A --4------6-----7------9--
E -------------------------

1st CHORUS  (play three times)
G -----------------------------
D -----------------------------
A ----7----------0-------------
E ----------7--------9-----7---

2nd Verse  (play twice)
G ------------------------------------------
D ------------------------------------------
A ---4h----6-7-2------2---------5--4------2-
E ------------------2---5----7----------2---

GOING INTO CHORUS 
G -------------------------
D -------------------------
A --4------6-----7------9--
E -------------------------

2nd CHORUS  (play twice)
G ------------------------------------------
D ------------------------------------------
A --7h-7-7-7------------0--0-0-0------------
E ------------7h-7-7-7-------------9-9-7-7--

(If you told me to cry for you........)
G --------------------------------------------------
D --------------------------------------------------
A --5-5-5-5-5-5-5-5-----------------5-5-5-5-5-5-5-5-
E ------------------5-5-5-5-0-0-0-0-----------------

continued
G ------------------
D -5-5-5-5-2-2-2-2--
A ------------------
E ------------------

G -------------------------------------------------
D -------------------------------------------------
A --2-2-2-2-2-2-2-2--------------------------------
E ------------------3-3-3-3-3-3-3-3/5--5-5--5--5---

(When guitar is playing on solo)
G ----------------------------------------------------
D ----------------------------------------------------
A ----------------7-7-----------------0--0-0-0-0-0-0--
E --5h-0---0-0-0-0----7h--7-7-7-7-7-7-----------------

G ----------------|
D ----------------|
A ----------------|
E --9-9---7-7-7-7-|

G ---------------------------------------------
D ---------------------------------------------
A -------------7-77/9------------0--0-0-0-0-0--
E -0---0-0-0-0-------97--7-7-7-7---------------

LEAD INTO CHORUS
G ---------------------------------------------
D ---------------------------------------------
A -0h----2h----0-0-0-0-0-0-0-0p---2p---4p---666
E ---------------------------------------------

CHORUS (play three times)
G ------------------------------------------
D ------------------------------------------
A --7h-7-7-7------------0--0-0-0------------
E ------------7h-7-7-7-------------9-9-7-7--

BREAKDOWN (play till end)
G ---------------------------------------------
D ---------------------------------------------
A --7h-777777----------------------------------
E ------------7h-777777-0-0--4-4--55555555555--
            
Submit corrections

comments powered by Disqus
↑ Back to top | Bon Jovi Bass for Always. Lyrics for acoustic guitar and electric guitar. 1 Tablatures and chords are parodies/interpretations of the original songs. You may use it for private study, scholarship, research or language learning purposes only