» » »

Bon Jovi, All About Lovi You Tabs (ver.1)

Artists:  A B C D E F G H I J K L M N O P Q R S T U V W X Y Z # 

All About Lovi You Tabs (ver.1)

Bon Jovi Tabs
 Rating:
4/5 (4 votes)
All About Lovi You lessons Tabs too difficult? Try these video lessons and learn fast
                Maracay , Venezuela

/:slide up
b:bend
~:vibrato

Guitar1: Electric guitar ,Guitar2: Acoustic guitar

Guitar1 (distorsion)Intro:

E|------------------------------------------------------------|
B|---8~---------10~---12b(13)----12h13--12-10-12-8----3/5-----|
G|---------7---------------------12------------------------7~-|
D|------------------------------------------------------------|
A|------------------------------------------------------------|
E|------------------------------------------------------------|

(Guitar2) Intro & verse1:
Arpeggio 1:
     G                   Dsus4/F#            Cadd9                 
E|------3--------3----------3--------3-----------3--------3------
B|--------3--------3----------3--------3-----------3--------3----
G|----------0--------0----------2--------2-----------0--------0--
D|-------------------------------------------2---------2---------
A|-------------------------------------------3---------3---------
E|---3---------3---------2---------2-----------------------------

 G
---3--------3------|
-----3--------3----|
-------0--------0--|
-------------------|
-2--------2--------|
-3--------3--------|  This is for the intro and verse 1

Looking at the pages of my life
Faded memories of me and you
Mistakes you know I've made a few....

Guitar1(clean) fill1: , Guitar2 :Arpeggio 1
 Fill1:
I took some shots......               
          E|---------3----|
          B|------3-------|
          G|---0----------|
          D|--------------|
          A|--------------|
          E|--------------|x4 times


I took some shots and fell from time to time
Baby, you were there to pull me through
We've been around the block a time or two..

Guitar 1(clean) Fill2 , Guitar2 Arpeggio 1
  Fill2:
..time or two
          E|---3--------|
          B|-------3----|
          G|------------|
          D|------------|
          A|------------|
          E|------------|x6 times..

I'm gonna lay it on the line
Ask me how we've come this far
The answer's written 
   (guitar 2 : D)
.......in my eyes

Chorus1 :

Guitar1 : (distorsion)
    G5   D5   C5                C5  D5  E5   C5  D5
E|-----|----|----|-----------|-----|-------|---------|
B|-----|----|----|-----------|-----|-------|---------|
G|-----|--7-|--5-|-----------|-----|-7---9-|--5--7---|
D|---5-|--7-|--5-|-----------|---5-|-7---9-|--5--7---|
A|---5-|--5-|--3-|---3-5-6-8-|---5-|-5---7-|--3--5---|
E|---3-|----|----|-----------|---3-|-------|---------|

Guitar2: Strums

G ,D ,C , C, G , D - Em ,C ,D.

Every time I look at you, baby, I see something new
That takes me higher than before and makes me want you more
I don't wanna sleep tonight, dreamin's just a waste of time
When I look at what my life's been comin' to
I'm all about lovin' you

Verse2 :

Guitar1 : Fill2...

Guitar2: STrum

G , Dsus4/F# , Cadd9

I've lived, I've loved, I've lost, I've paid some dues, baby
We've been to hell and back again
Through it all you're always my best friend
For all the words I didn't say and all the things I didn't do
Tonight I'm gonna find a way

CHorus2 : repeat the chorus1

Brigde:
Guitar1 (distorsion):

E|--------------------------------------------------|
B|--------------------------------------------------|
G|----------------------------------------------7---|
D|----------------------------------------------7---|
A|--------2~-----3~-----3-2----------2~-----3~--5---|
E|---5~------------------------5~-------------------|

Guitar2: Strum

   Am , Bm , C , C - Bm , Am , Bm , C , D.

You can take this world away
You're everything I am
Just read the lines upon my face
I'm all about lovin' you

Solo:

Guitar1 (distorsion):
                                                  nah nah nah all about...
E|--------------------------------------------------------------------------|
B|---8-------8-------8----10-------10------10----12b(13)--12h13--12-10-12-8~|
G|-------7-------7-----7-------7--------7-----7-----------------------------|
D|--------------------------------------------------------------------------|
A|--------------------------------------------------------------------------|
E|--------------------------------------------------------------------------|

Guitar2 : Strum

G , D/F# , Cadd9 , G...

...Chorus : repeat the others chorus

Outro:
guitar2:
                      ...all about lovin' you
E|-------------------------------------------3-------|
B|---------------------1---------------------3-------|
G|---5/7--9---7---4----0---------------------0-------|
D|---------------------2---------------------0-------|
A|---------------------3---------------------2-------|
E|-------------------------------------------3-------|


NOTE: If you wanna another Bon jovi's song in tab just mail me 
I'm working with the bounce's songs.
Thanks to Richie Sambora "the best" that made and play this simple but
good song.
                BON JOVI COME BACK TO VENEZUELA PLEASE!!!!!
Santiago Rodriguez
Maracay ,Venezuela
            
Submit corrections

comments powered by Disqus
↑ Back to top | Bon Jovi Tabs for All About Lovi You. Lyrics for acoustic guitar and electric guitar. Tablatures and chords are parodies/interpretations of the original songs. You may use it for private study, scholarship, research or language learning purposes only