» » »

All About Lovin You Tabs (ver.3)

Artists:  A B C D E F G H I J K L M N O P Q R S T U V W X Y Z # 

All About Lovin You Tabs (ver.3)

Bon Jovi
Rating:
0/5 (0 votes)

Tabs too difficult? Try these video lessons and learn fast.
                Bon Jovi – All about loving you

Chords used:

    G     D     C     Em   Bm    Am   Dsus4/F#
e|--3--|--2--|--0--|--0--|--2--|--0--|--3--|
B|--3--|--3--|--1--|--0--|--3--|--1--|--1--|
G|--0--|--2--|--0--|--0--|--4--|--2--|--0--|
D|--0--|--0--|--2--|--2--|--2--|--2--|--2--|
A|--2--|--x--|--3--|--2--|--2--|--0--|--3--|
E|--3--|--x--|--x--|--0--|--x--|--x--|--x--|


Intro
Guitar 1 (Electric Guitar):
e|---------------------------------------------------------|
B|--8--------10~---13------13--12--10--12--8--------3--5---|
G|-------7-------------12---------------------7------------|
D|---------------------------------------------------------|
A|---------------------------------------------------------|
E|---------------------------------------------------------|
Inrto
Guitar 2:
  G                  D                 Dsus4/F#                           
e|----3--------3--------3---------3--------3--------3--------3-------3----|
B|------3--------3--------3---------3--------3--------3--------3-------3--|
G|--------0--------0--------2---------2--------0--------0--------0-------0|
D|------------------------------------------------------------------------|
A|---------------------------------------3--------3--------3-------3------|
E|-3---------3--------2--------2------------------------------------------|


Verse 1
Guitar 1:

G                          D
Looking at the pages of my life,
      Dsus4/F#
Faded memories of me and you
(Dsus4/F#)
Mistakes you know I’ve made a few

G                                    D
I took some shots and fell from time to time
      Dsus4/F#
Baby, you were there to pull me through
(Dsus4/F#)
We’ve been around that block a time or two

Verse 1
Guitar 2: 2 times

  G                  D                 Dsus4/F#                           
e|----3--------3--------3---------3--------3--------3--------3-------3----|
B|------3--------3--------3---------3--------3--------3--------3-------3--|
G|--------0--------0--------2---------2--------0--------0--------0-------0|
D|------------------------------------------------------------------------|
A|---------------------------------------3--------3--------3-------3------|
E|-3---------3--------2--------2------------------------------------------| 

Pre Chorus 1
Guitar 1:

G                       D
I’m gonna lay it on the line
                       Dsus4/F#
Ask me how we’ve come this far
                           G 
The answer’s written in my eyes

Pre Chorus 1
Guitar 2:

e|---3--------3--------3---------3--------3--------3--------------------|
B|------3--------3--------3---------3--------3--------3-----------------|
G|----------------------------------------------------------------------|
D|----------------------------------------------------------------------|
A|----------------------------------------------------------------------|
E|----------------------------------------------------------------------|

Chours
Guitar 1:

             G
Every time I look at you,
            D
Baby, I see something new,
     C
That takes me higher than before
(C)
And makes me want you more
             G
I don’t wanna sleep tonight,
                 D        Em
Dreamin’s just a waste of time
       C                                  D
When I look at what my life’s been comin’ to
(D)
I’m all about lovin’ you

Chorus
Guitar 2 (Electric Guitar):
   G5    D5    C5                G5    D5    E5    C5    D5    C5
e|-----|-----|-----|-----------|-----|-----|-----|-----|-----|-----|
B|-----|-----|-----|-----------|-----|-----|-----|-----|-----|-----|
G|-----|--7--|--5--|-----------|-----|--7--|--9--|--5--|--7--|--5--|
D|--5--|--7--|--5--|-----------|--5--|--7--|--9--|--5--|--7--|--5--|
A|--3--|--5--|--3--|--3-5-6-8--|--5--|--5--|--7--|--3--|--5--|--3--|
E|--3--|-----|-----|-----------|--3--|-----|-----|-----|-----|-----|


Verse 2
Guitar 1:

     G                                            D
I’ve lived, I’ve loved, I’ve lost, I’ve paid some dues
      Dsus4/F#
Baby, we’ve been to hell and back again
(Dsus4/F#)
Through it all you’re always my best friend

Verse 2
Guitar 2:

e|---3-------3-------3-------3-------3-------3-------3------3-------|
B|-----3-------3-------3-------3-------3-------3-------3------3-----|
G|------------------------------------------------------------------|
D|------------------------------------------------------------------|
A|------------------------------------------------------------------|
E|------------------------------------------------------------------|


Pre Chorus 2
Guitar 1:
G                         D
For all the words I didn’t say
                        Dsus4/F#
And all the things I didn’t do
                       G
Tonight I’m gonna find a way

Pre Chorus 2
Guitar 2:

e|---3-------3-------3-------3-------3-------3-------3------3-------|
B|-----3-------3-------3-------3-------3-------3-------3------3-----|
G|------------------------------------------------------------------|
D|------------------------------------------------------------------|
A|------------------------------------------------------------------|
E|------------------------------------------------------------------|


Chours
Guitar 1:

             G
Every time I look at you,
            D
Baby, I see something new,
     C
That takes me higher than before
(C)
And makes me want you more
             G
I don’t wanna sleep tonight,
                 D        Em
Dreamin’s just a waste of time
       C                                  D
When I look at what my life’s been comin’ to
(D)
I’m all about lovin’ you

Chorus
Guitar 2 (Electric Guitar):
   G5    D5    C5                G5    D5    E5    C5    D5    C5
e|-----|-----|-----|-----------|-----|-----|-----|-----|-----|-----|
B|-----|-----|-----|-----------|-----|-----|-----|-----|-----|-----|
G|-----|--7--|--5--|-----------|-----|--7--|--9--|--5--|--7--|--5--|
D|--5--|--7--|--5--|-----------|--5--|--7--|--9--|--5--|--7--|--5--|
A|--3--|--5--|--3--|--3-5-6-8--|--5--|--5--|--7--|--3--|--5--|--3--|
E|--3--|-----|-----|-----------|--3--|-----|-----|-----|-----|-----|


Bridge
Guitar 1:
Am      Bm              C       
You can take this world away
(C)                 Bm                
You’re everything I am
Am               Bm          C
Just read the lines upon my face
D
I’m all about lovin’ you

Bridge
Guitar 2:

e|------------------------------------|-----|------|
B|------------------------------------|-----|------|
G|------------------------------------|--7--|------|
D|------------------------------------|--7--|------|
A|--------2~---3~------2--3--------2~-|--3--|--5~--|
E|---5~------------------------5~-----|-----|------|


Solo
Guitar 1 (Electric Guitar):

e|------------------------------------------------------------------------|
B|--8------8------8------10-------10------10-------13---13--12—10—12—8----|
G|-----7------7------7-------7--------7-------7-------12------------------|
D|------------------------------------------------------------------------|
A|------------------------------------------------------------------------|
E|------------------------------------------------------------------------|

Solo
Guitar 2:

|G|D|C|Dsus4/F#|



Chours
Guitar 1:

             G
Every time I look at you,
            D
Baby, I see something new,
     C
That takes me higher than before
(C)
And makes me want you more
             G
I don’t wanna sleep tonight,
                 D        Em
Dreamin’s just a waste of time
       C                                  D
When I look at what my life’s been comin’ to
(D)
I’m all about lovin’ you

Chorus
Guitar 2 (Electric Guitar):
   G5    D5    C5                G5    D5    E5    C5    D5    C5
e|-----|-----|-----|-----------|-----|-----|-----|-----|-----|-----|
B|-----|-----|-----|-----------|-----|-----|-----|-----|-----|-----|
G|-----|--7--|--5--|-----------|-----|--7--|--9--|--5--|--7--|--5--|
D|--5--|--7--|--5--|-----------|--5--|--7--|--9--|--5--|--7--|--5--|
A|--3--|--5--|--3--|--3-5-6-8--|--5--|--5--|--7--|--3--|--5--|--3--|
E|--3--|-----|-----|-----------|--3--|-----|-----|-----|-----|-----|



Outro
Guitar 2:

                                  I’m all about lovin’ you   G
e|--------------------------------------------------------|--3--|
B|--------------------------------------------------------|--3--|
G|----5----9----7---0-2----7------------------------------|--0--|
D|--------------------------------------------------------|--0--|
A|--------------------------------------------------------|--2--|
E|--------------------------------------------------------|--3--|


Das ist für dich Maren,
Ich liebe dich!!!
            
Tabs too difficult? Try these video lessons and learn fast.


comments powered by Disqus
↑ Back to top | Tablatures and chords are parodies/interpretations of the original songs. You may use it for private study, scholarship, research or language learning purposes only