>
 >
All About Lovin' You 1

All About Lovin' You 1 Guitar Tabs

Bon Jovi - All About Lovin' You 1 chords, tabs, tablatures, lyrics

Guitar lessons | Add/correct | Request | Top 50 tabs Artists:  A B C D E F G H I J K L M N O P Q R S T U V W X Y Z 0-9

All About Lovin' You 1 Guitar Tabs – Bon Jovi

CD, Sheet music, Poster

Do you like All About Lovin' You 1? Share with your friends now
ChordsTabsTabs v2Tabs v3


Intro

e------------------------------------------------|
B------------13-12h13-12-10-10/12---------------|
G-12-----14------------------------12------------|
D----12---------------------------------12/14-12-|
A------------------------------------------------|
E------------------------------------------------|

Verse 1

E------3----|
B-----3-3-3-|
G----0---0--|
D-----------|
A---2-------|
E--3--------|
Looking at the pages

E------3----|
B-----3-3-3-|
G----2---2--|
D---0-------|
A-----------|
E--2--------|
of my life

E-------------|
B------1------|
G-----2--2-2--|
D----3----3---|
A---3---------|
E--1----------|
Faded memories of me and you

E---------------|
B------1-3-1-1--|
G---- 0-----0---|
D----2----------|
A---3-----------|
E---------------|
Baby you were there to pull me through

Pre-chorus 1

E----------0---|
B--------0-----|
G------0-------|
D----2---------|
A--------------|
E--0-----------|
We've been around the block a time or two

E--------------|
B-----1-3------|
G---0----------|
D--------------|
A--3-----------|
E--------------|
I'm gonna lay it

E----2---------|
B----3---------|
G----2---------|
D----0---------|
A----0---------|
E----2---------|
on the line

E--------------|
B-----3--------|
G----4---------|
D---4----------|
A--2-----------|
E--------------|
Ask me how we've

E----------0---|
B--------0-----|
G------0-------|
D----2---------|
A--------------|
E--0-----------|
come this far

E--------------|
B-----1-3------|
G---0----------|
D--------------|
A--3-----------|
E--------------|
The answer's written

E----2---------|
B----3---------|
G----2---------|
D----0---------|
A----0---------|
E----2---------|
in my eyes


Chorus

E--------------------|
B--------------------|
G--------------------|
D--5-5-5-5-5-5-5-5---|
A--5-5-5-5-5-5-5-5---|
E--3-3-3-3-3-3-3-3---|
Every time I look at you,

E--------------------|
B--------------------|
G--4-4-4-4-4-4-4-4---|
D--4-4-4-4-4-4-4-4---|
A--2-2-2-2-2-2-2-2---|
E--------------------|
baby, I see something new

E--------------------|
B--------------------|
G--5-5-5-5-5-5-5-5---|
D--5-5-5-5-5-5-5-5---|
A--3-3-3-3-3-3-3-3---|
E--------------------|
That takes me higher than before

E--------------------|
B--------------------|
G--5--7--9--10-------|
D--5--7--9--10-------|
A--3--5--7--8--------|
E--------------------|
and makes me want you more

E--------------------|
B--------------------|
G--------------------|
D--5-5-5-5-5-5-5-5---|
A--5-5-5-5-5-5-5-5---|
E--3-3-3-3-3-3-3-3---|
I don't wanna sleep tonight,

E--------------------|
B--------------------|
G--4-4-4-4-4-4-4-4---|
D--4-4-4-4-4-4-4-4---|
A--2-2-2-2-2-2-2-2---|
E--------------------|
dreamin's just a waste

E--------------------|
B--------------------|
G--------------------|
D--2-2-2-2-----------|
A--2-2-2-2-----------|
E--0-0-0-0-----------|
of time

E--------------------|
B--------------------|
G--------------------|
D--3-3-3-3-3-3-3-3---|
A--3-3-3-3-3-3-3-3---|
E--1-1-1-1-1-1-1-1---|
When I look at what my life's

E--------------------|
B--------------------|
G--7-7-7-7-----------|
D--7-7-7-7-----------|
A--5-5-5-5-----------|
E--------------------|
been comin' to

E--------------------|
B--------------------|
G--5-----------------|
D--5-----------------|
A--3-----------------|
E--------------------|
I'm all about lovin' you

Verse 2

E------3----|
B-----3-3-3-|
G----0---0--|
D-----------|
A---2-------|
E--3--------|
I've lived , I've loved, I've lost

E------3----|
B-----3-3-3-|
G----2---2--|
D---0-------|
A-----------|
E--2--------|
I've paid some dues,

E-------------|
B------1------|
G-----2--2-2--|
D----3----3---|
A---3---------|
E--1----------|
Baby we've been to hell and back

E---------------|
B------1-3-1-1--|
G---- 0-----0---|
D----2----------|
A---3-----------|
E---------------|
Again

Pre-chorus 2

E----------0---|
B--------0-----|
G------0-------|
D----2---------|
A--------------|
E--0-----------|
Through it all you're always my best friend

E--------------|
B-----1-3------|
G---0----------|
D--------------|
A--3-----------|
E--------------|
For all the words

E----2---------|
B----3---------|
G----2---------|
D----0---------|
A----0---------|
E----2---------|
I did'nt say

E--------------|
B-----3--------|
G----4---------|
D---4----------|
A--2-----------|
E--------------|
And all the things

E----------0---|
B--------0-----|
G------0-------|
D----2---------|
A--------------|
E--0-----------|
i didn't do

E--------------|
B-----1-3------|
G---0----------|
D--------------|
A--3-----------|
E--------------|
Tonight im gonna find

E----2---------|
B----3---------|
G----2---------|
D----0---------|
A----0---------|
E----2---------|
a way

Chorus

E--------------------|
B--------------------|
G--------------------|
D--5-5-5-5-5-5-5-5---|
A--5-5-5-5-5-5-5-5---|
E--3-3-3-3-3-3-3-3---|
Every time I look at you,

E--------------------|
B--------------------|
G--4-4-4-4-4-4-4-4---|
D--4-4-4-4-4-4-4-4---|
A--2-2-2-2-2-2-2-2---|
E--------------------|
baby, I see something new

E--------------------|
B--------------------|
G--5-5-5-5-5-5-5-5---|
D--5-5-5-5-5-5-5-5---|
A--3-3-3-3-3-3-3-3---|
E--------------------|
That takes me higher than before

E--------------------|
B--------------------|
G--5--7--9--10-------|
D--5--7--9--10-------|
A--3--5--7--8--------|
E--------------------|
and makes me want you more

E--------------------|
B--------------------|
G--------------------|
D--5-5-5-5-5-5-5-5---|
A--5-5-5-5-5-5-5-5---|
E--3-3-3-3-3-3-3-3---|
I don't wanna sleep tonight,

E--------------------|
B--------------------|
G--4-4-4-4-4-4-4-4---|
D--4-4-4-4-4-4-4-4---|
A--2-2-2-2-2-2-2-2---|
E--------------------|
dreamin's just a waste

E--------------------|
B--------------------|
G--------------------|
D--2-2-2-2-----------|
A--2-2-2-2-----------|
E--0-0-0-0-----------|
of time

E--------------------|
B--------------------|
G--------------------|
D--3-3-3-3-3-3-3-3---|
A--3-3-3-3-3-3-3-3---|
E--1-1-1-1-1-1-1-1---|
When I look at what my life's

E--------------------|
B--------------------|
G--7-7-7-7-----------|
D--7-7-7-7-----------|
A--5-5-5-5-----------|
E--------------------|
been comin' to

E--------------------|
B--------------------|
G--5-----------------|
D--5-----------------|
A--3-----------------|
E--------------------|
I'm all about lovin' you

Bridge

   Am       C       Am       C   D
e---0-------0--------0-------0---5-|
B---1-------1-------1-------1---7-|
G---2-------0--------2-------0---7-|
D---2-------2--------2-------2---7-|
A-0-0--2--3-3--2---0-0--2--3-3---5-|
E----------------------------------|
You can take this world away
You're everything I am
Just read the lines upon my face
I'm all about lovin' you.....

Solo
e--------------------------------------------------------|
B----------------------------13-12h13-12-10-10/12-------|
G-12--12--12---14--14--14-------------------------12-----|
D---12-12--12---12--12--12------------------------------|
A--------------------------------------------------------|
E--------------------------------------------------------|

Chorus

E--------------------|
B--------------------|
G--------------------|
D--5-5-5-5-5-5-5-5---|
A--5-5-5-5-5-5-5-5---|
E--3-3-3-3-3-3-3-3---|
Every time I look at you,

E--------------------|
B--------------------|
G--4-4-4-4-4-4-4-4---|
D--4-4-4-4-4-4-4-4---|
A--2-2-2-2-2-2-2-2---|
E--------------------|
baby, I see something new

E--------------------|
B--------------------|
G--5-5-5-5-5-5-5-5---|
D--5-5-5-5-5-5-5-5---|
A--3-3-3-3-3-3-3-3---|
E--------------------|
That takes me higher than before

E--------------------|
B--------------------|
G--5--7--9--10-------|
D--5--7--9--10-------|
A--3--5--7--8--------|
E--------------------|
and makes me want you more

E--------------------|
B--------------------|
G--------------------|
D--5-5-5-5-5-5-5-5---|
A--5-5-5-5-5-5-5-5---|
E--3-3-3-3-3-3-3-3---|
I don't wanna sleep tonight,

E--------------------|
B--------------------|
G--4-4-4-4-4-4-4-4---|
D--4-4-4-4-4-4-4-4---|
A--2-2-2-2-2-2-2-2---|
E--------------------|
dreamin's just a waste

E--------------------|
B--------------------|
G--------------------|
D--2-2-2-2-----------|
A--2-2-2-2-----------|
E--0-0-0-0-----------|
of time

E--------------------|
B--------------------|
G--------------------|
D--3-3-3-3-3-3-3-3---|
A--3-3-3-3-3-3-3-3---|
E--1-1-1-1-1-1-1-1---|
When I look at what my life's

E--------------------|
B--------------------|
G--7-7-7-7-----------|
D--7-7-7-7-----------|
A--5-5-5-5-----------|
E--------------------|
been comin' to

E--------------------|
B--------------------|
G--5-----------------|
D--5-----------------|
A--3-----------------|
E--------------------|
I'm all about lovin' you


Ending
                   all about lovin' you
e--------------------------------------3-|
B-------------------------------------3-|
G--------------------------------------0-|
D-12-14-12---12------------------------0-|
A----------14--15----------------------2-|
E--------------------------------------3-|


This is my second tab..
hope u like it... its a nice song...

Rock on.....





Comments


Popular Bon Jovi tabs & chords
One Wild Night Bass Tabs
My Guitar Lies Bleeding In My Arms Chords
Santa Fe Chords
This Is Love This Is Life Chords
Blaze Of Glory Tabs
Hardest Part Is The Night 1 Tabs
In And Out Of Love Tabs
My Guitar Lies Tabs
Superman Tonight Intro Tabs
Misunderstood Ukulele


Song lyrics



↑ Back to top | Tablatures and chords are parodies/interpretations of the original songs. You may use it for private study, scholarship, research or language learning purposes only
© 2014 AZChords.com Contact us | Privacy policy | DMCA | Add/correct tabs | Request tabs | Top 50 tabs