» » »

Bon Iver, I Cant Make You Love Me Tabs (ver.1)

Artists:  A B C D E F G H I J K L M N O P Q R S T U V W X Y Z # 

I Cant Make You Love Me Tabs (ver.1)

Bon Iver Tabs
Rating:
0/5 (0 votes)
I Cant Make You Love Me lessons Tabs too difficult? Try these video lessons and learn fast
                Great cover by Justin Vernon of Bonnie Rait's "I Can't Make You Love Me". It's played on 
piano but i really wanted to learn it (and can't play the piano very well), and it 
sounds pretty cool on guitar as well. not sure how accurate this is, but it sounds alright to me

N.B. doesnt include the little mashup bit at the end of the song where it blends into 
nick of time

Chords are as follows
  A     G*    F*   E    C     G     F
 -x--  -x--  -x-  -x-  -x--  -x--  -x--
 -x--  -x--  -x-  -x-  -x--  -x--  -x--
 -x--  -x--  -x-  -x-  -x--  -x--  -x--
 -x--  -x--  -x-  -x-  -x--  -x--  -x--
 -19-  -17-  15-  14-  -10-  -5--  -1--
 -17-  -15-  13-  12-  -8--  -3--  -3--

INTRODUCTION
VERSE
CHORUS
POST CHORUS
VERSE
CHORUS



INTRODUCTION

-13-----------13-15-17----13-----------13-15-17------x-----x---------12-15--------|
----13-15---15---------------13-15---15--------------x-----x------13--------------|
-----------------------------------------------------x-----x----------------------|
-----------------------------------------------------x-----x----------------------|
-----------------------------------------------------13---10----------------------|
-----------------------------------------------------15----8----------------------|

-17-15--------------------------------------------15-15---------------------------|
--------13h15/17-15---15-17--------------------13------17-15-13---13-17-17-15-15--|
-------------------------------17p16-14---12-14-----------------------------------|
----------------------------------------------------------------------------------|
----------------------------------------------------------------------------------|
----------------------------------------------------------------------------------|


VERSE
-17-15--------------------------------------------15-15---------------------------|
--------13h15/17-15---15-17--------------------13------17-15-13---13-17-17-15-15--|
-------------------------------17p16-14---12-14-----------------------------------|
----------------------------------------------------------------------------------|
----------------------------------------------------------------------------------|
----------------------------------------------------------------------------------|
1. turn down the light, turn down the bed, turn down these voices, inside my head
2. I'll close my eyes, and then I won't see, the love you don't feel, when you're 
holding me


-17-15---------------------15----------------15-15--------------------------------|
-------13h15/17-15--15-17----17p15-------13-------17-15-13---13-17-17-15-15-------|
-------------------------------------12-14----------------------------------------|
----------------------------------------------------------------------------------|
----------------------------------------------------------------------------------|
----------------------------------------------------------------------------------|
1. lay down with me, tell me no lies. just hold me close, dont patronize
2. morning will come, and ill do what's right, just give me 'til then, to give up this fight

        G                      F                                G
1.  me                   don't patronize me
2.  and I Will            give                         up this fight



CHORUS
             F*         C                 F
'Cause i can't make you love me, if you don't
              F*            C       E           F*  G*
You can't make your heart feel, something it won't
 A         F*       C                F
Here in the dark, in these final hours
      F*         C           E            F
I will Lay down my heart, and I'll feel the power
           G                  F
But you won't, no you won't
              F*            C               F
'Cause i cant make you love me, if you don't



POST CHORUS
--------17-15----------------------------------------15-17-------------------------|
------13------13h15/17-15--15-17-----------------13-------13-15-17-15-13-----------|
-12-14---------------------------17p16-14--12-14 ------------------------14p12h14--|
-----------------------------------------------------------------------------------|
-----------------------------------------------------------------------------------|
-----------------------------------------------------------------------------------|
            

comments powered by Disqus
↑ Back to top | Bon Iver Tabs for I Cant Make You Love Me. Lyrics for acoustic guitar and electric guitar. Tablatures and chords are parodies/interpretations of the original songs. You may use it for private study, scholarship, research or language learning purposes only