>
 >
Sharks Cant Sleep

Sharks Cant Sleep Guitar Tabs

Bonham Tracy - Sharks Cant Sleep chords, tabs, tablatures, lyrics

Guitar lessons | Add/correct | Request | Top 50 tabs Artists:  A B C D E F G H I J K L M N O P Q R S T U V W X Y Z 0-9

Sharks Cant Sleep Guitar Tabs – Bonham Tracy

CD, Sheet music, Poster

Do you like Sharks Cant Sleep? Share with your friends now
ChordsTabsTabs v2
D        F#        G           E
E|---------------------------------0--0--0--0
B|------3--------------------------0--0--0--0
G|----2---2------3---------0-------1--1--1--1
D|--0------------------------------2--2--2--2
A|-------------4---4-----2---2-----2--2--2--2
E|-----------2---------3-----------0--0--0--0

    D        F#        G           E
E|---------------------------------0
B|------3--------------------------0
G|----2---2------3---------0-------1
D|--0------------------------------2
A|-------------4---4-----2---2-----2
E|-----------2---------3-----------0




    D        F#        G           E
E|---------------------------------0--0--0--0
B|------3--------------------------0--0--0--0
G|----2---2------3---------0-------1--1--1--1
D|--0------------------------------2--2--2--2
A|-------------4---4-----2---2-----2--2--2--2
E|-----------2---------3-----------0--0--0--0
   Saw a shark today
   Ate a man and then just swam away
   But it wasn't O.K.

    D        F#        G           E   
E|---------------------------------0
B|------3--------------------------0
G|----2---2------3---------0-------1
D|--0------------------------------2
A|-------------4---4-----2---2-----2
E|-----------2---------3-----------0
   No it wasn't O.K.


    D        F#        G           E
E|---------------------------------0--0--0--0
B|------3--------------------------0--0--0--0
G|----2---2------3---------0-------1--1--1--1
D|--0------------------------------2--2--2--2
A|-------------4---4-----2---2-----2--2--2--2
E|-----------2---------3-----------0--0--0--0
   Saw a snake today
   Ate another snake then sqirmed away
   But it wasn't O.K.

    D        F#        G         E   
E|---------------------1-1-111---0-0-0
B|------3--------------0-0-000---0-0-0
G|----2---2------3-----0-0-000---1-1-1
D|--0------------------0-0-000---2-2-2
A|-------------4---4---2-2-222---2-2-2
E|-----------2---------3-3-333---0-0-0
   No it wasn't O.---K.---


    D        F#       G         E
E|--2-2-222--2-2-222--1-1-111---0-0-0
B|--3-3-333--2-2-222--0-0-000---0-0-0
G|--2-2-222--3-3-333--0-0-000---1-1-1
D|--0-0-000--4-4-444--0-0-000---2-2-2
A|--x-x-xxx--4-4-444--2-2-222---2-2-2
E|--x-x-xxx--2-2-222--3-3-333---0-0-0
    Ohhhh    Ohhhh    Noooo
    Ohhhh    Ohhhh    Ohhhh

    D      F#     G       E
E|--2-2-2--2-2-2--1-1-1---0-0-0
B|--3-3-3--2-2-2--0-0-0---0-0-0
G|--2-2-2--3-3-3--0-0-0---1-1-1
D|--0-0-0--4-4-4--0-0-0---2-2-2
A|--x-x-x--4-4-4--2-2-2---2-2-2
E|--x-x-x--2-2-2--3-3-3---0-0-0
         But it wasn't O.K.
         No it  wasn't O.K.



    D        F#        G           E
E|---------------------------------0--0--0--0
B|------3--------------------------0--0--0--0
G|----2---2------3---------0-------1--1--1--1
D|--0------------------------------2--2--2--2
A|-------------4---4-----2---2-----2--2--2--2
E|-----------2---------3-----------0--0--0--0
   Met a star today
   Looked like flesh and bone and tooth decay
   But it wasn't O.K.

    D        F#        G         E   
E|---------------------1-1-111---0-0-0
B|------3--------------0-0-000---0-0-0
G|----2---2------3-----0-0-000---1-1-1
D|--0------------------0-0-000---2-2-2
A|-------------4---4---2-2-222---2-2-2
E|-----------2---------3-3-333---0-0-0
   No it wasn't O.---K.---


    D        F#       G         E
E|--2-2-222--2-2-222--1-1-111---0-0-0
B|--3-3-333--2-2-222--0-0-000---0-0-0
G|--2-2-222--3-3-333--0-0-000---1-1-1
D|--0-0-000--4-4-444--0-0-000---2-2-2
A|--x-x-xxx--4-4-444--2-2-222---2-2-2
E|--x-x-xxx--2-2-222--3-3-333---0-0-0
    Ohhhh    Ohhhh    Ohhhh
    Ohhhh    Ohhhh    Noooo

    D      F#     G       E
E|--2-2-2--2-2-2--1-1-1---0-0-0
B|--3-3-3--2-2-2--0-0-0---0-0-0
G|--2-2-2--3-3-3--0-0-0---1-1-1
D|--0-0-0--4-4-4--0-0-0---2-2-2
A|--x-x-x--4-4-4--2-2-2---2-2-2
E|--x-x-x--2-2-2--3-3-3---0-0-0
         But it wasn't O.K.
         No it  wasn't O.K.
         No it  wasn't O.K.
         No it  wasn't O.K.


    A  A   G  G     A  A   G       A  A   G  G     A   F
E|--0--0---1--1-----0--0---1-------0--0---1--1-----0---1
B|--0--0---0--0-----0--0---0-------0--0---0--0-----0---1
G|--2--2---0--0-----2--2---0-------2--2---0--0-----2---2
D|--2--2---0--0-----2--2---0-------2--2---0--0-----2---2
A|--2--2---2--2-----2--2---2-------2--2---2--2-----2---0
E|--0--0---3--3-----2--0---3-------0--0---3--3-----2---0
   No-oo  Oo-oo    No not  I      No-oo  Oo-oo    Not  me

    A  A   G  G     A  A   G       A  A   G  G     A   E
E|--0--0---1--1-----0--0---1-------0--0---1--1-----0---0
B|--0--0---0--0-----0--0---0-------0--0---0--0-----0---0
G|--2--2---0--0-----2--2---0-------2--2---0--0-----2---1
D|--2--2---0--0-----2--2---0-------2--2---0--0-----2---2
A|--2--2---2--2-----2--2---2-------2--2---2--2-----2---2
E|--0--0---3--3-----2--0---3-------0--0---3--3-----2---0
   No-oo  Oo-oo    No not  I      No-oo  Oo-oo    Not  me



    D        F#        G           E
E|---------------------------------0--0--0--0
B|------3--------------------------0--0--0--0
G|----2---2------3---------0-------1--1--1--1
D|--0------------------------------2--2--2--2
A|-------------4---4-----2---2-----2--2--2--2
E|-----------2---------3-----------0--0--0--0
   Ate a man today
   Ate a man and then just walked away
   But it wasn't O.K.

    D        F#        G         E    
E|---------------------1-1-111---0-0-0
B|------3--------------0-0-000---0-0-0
G|----2---2------3-----0-0-000---1-1-1
D|--0------------------0-0-000---2-2-2
A|-------------4---4---2-2-222---2-2-2
E|-----------2---------3-3-333---0-0-0
   No it wasn't O.---K.---


    D        F#       G         E
E|--2-2-222--2-2-222--1-1-111---0-0-0
B|--3-3-333--2-2-222--0-0-000---0-0-0
G|--2-2-222--3-3-333--0-0-000---1-1-1
D|--0-0-000--4-4-444--0-0-000---2-2-2
A|--x-x-xxx--4-4-444--2-2-222---2-2-2
E|--x-x-xxx--2-2-222--3-3-333---0-0-0
    Ohhhh    Ohhhh    Ohhhh
    Ohhhh    Ohhhh    Noooo

    D      F#     G       E
E|--2-2-2--2-2-2--1-1-1---0-0-0
B|--3-3-3--2-2-2--0-0-0---0-0-0
G|--2-2-2--3-3-3--0-0-0---1-1-1
D|--0-0-0--4-4-4--0-0-0---2-2-2
A|--x-x-x--4-4-4--2-2-2---2-2-2
E|--x-x-x--2-2-2--3-3-3---0-0-0
         But it wasn't O.K.
         No it  wasn't O.K.
         No it  wasn't O.K.
         No it  wasn't O.K.

    D     F#     G     E
E|--2-----2------1-----0
B|--3-----2------0-----0
G|--2-----3------0-----1
D|--0-----4------0-----2
A|--x-----4------2-----2
E|--x-----2------3-----0
   No it  wasn't O.K.





Comments


Popular Bonham Tracy tabs & chords
Burdens Of Being Upright Chords
Mother Mother Chords
Sharks Cant Sleep Chords
Burdens Of Being Upright Tabs
Mother Mother 1 Tabs
Navy Bean Tabs
Navy Bean 1 Tabs
Sharks Cant Sleep 1 Tabs
The One Tabs
The One 1 Tabs


Song lyrics



↑ Back to top | Tablatures and chords are parodies/interpretations of the original songs. You may use it for private study, scholarship, research or language learning purposes only
© 2014 AZChords.com Contact us | Privacy policy | DMCA | Add/correct tabs | Request tabs | Top 50 tabs