» » »

Mother Mother Tabs (ver.1)

Artists:  A B C D E F G H I J K L M N O P Q R S T U V W X Y Z # 

Mother Mother Tabs (ver.1)

Bonham Tracy
Rating:
0/5 (0 votes)

Hard to play? Try these video lessons and learn fast.
                Figure 1

e---5-5-5---5-5-5-5---4-4-4---4-4-4-4---3-3-3---3-3-3-3---2-2-2---2-2-2-3-4-|
B---5-5-5---5-5-5-5---4-4-4---4-4-4-4---3-3-3---3-3-3-3---2-2-2---2-2-2-3-4-|
G---6-6-6---6-6-6-6---5-5-5---5-5-5-5---4-4-4---4-4-4-4---3-3-3---3-3-3-4-5-|
D---7-7-7---7-7-7-7---6-6-6---6-6-6-6---5-5-5---5-5-5-5---4-4-4---4-4-4-5-6-|
A---7-7-7---7-7-7-7---6-6-6---6-6-6-6---5-5-5---5-5-5-5---4-4-4---4-4-4-5-6-|
E---5-5-5---5-5-5-5---4-4-4---4-4-4-4---3-3-3---3-3-3-3---2-2-2---2-2-2-3-4-|
    MOther Mother, how's the family...


Figure 2

e---------------------------|
B---------------------------|
G---------7-7---5-5-5-5-5-5-|
D---2-2---7-7---5-5-5-5-5-5-|
A---2-2---5-5---3-3-3-3-3-3-|
E---0-0---------------------|
    When you sent me off to see the world...


Figure 3

e-------------------------------------|
B-------------------------------------|
G-------------------------------------|
D---7---7---7---7-6-5-4-4-4---4-4-4-4-|
A---7---7---7---5-6-5-4-4-4---4-4-4-4-|
E---5---5---5---5-4-3-2-2-2---2-2-2-2-|
    I'm hungry, I'm dirty, I'm losing my mind...
            
Hard to play? Try these video lessons and learn fast. | Correct




comments powered by Disqus
↑ Back to top | Tablatures and chords are parodies/interpretations of the original songs. You may use it for private study, scholarship, research or language learning purposes only