>
 >
Let Me Be The One

Let Me Be The One Guitar Tabs

Bondoc Jimmy - Let Me Be The One chords, tabs, tablatures, lyrics

Guitar lessons | Add/correct | Request | Top 50 tabs Artists:  A B C D E F G H I J K L M N O P Q R S T U V W X Y Z 0-9

Let Me Be The One Guitar Tabs – Bondoc Jimmy

CD, Sheet music, Poster

Do you like Let Me Be The One? Share with your friends now
ChordsTabs


   INTRO:

e|----12-------12-------------|-----------------------------|
B|--------------------12-14-14|------12---14-14------12--14-|
G|-14-------14-----14---------|--14--------------14---------|
D|---12---12----------11------|-----------------------------|
A|----------------------------|-----14--------------12------|
E|----------------------------|-----------------------------|


e|--------12------------------|----------------------------|
B|-----------------12-12h14-12|10--------------------------|
G|-----14-----14--------------|------9---------------------|
D|--0-------------11----------|------0---------------------|
A|----------------------------|----------------------------|
E|----------------------------|----------------------------|


e|-------------------------------|-------------------------------|
B|--------00h2-0----------------|--------00h2-0----------------|
G|-------2-----------------------|-------2------------2----------|
D|--2-----------0----------------|--2-----------0----------------|
A|--0---0------------------------|--0---0------------------------|
E|-------------------------------|-------------------------------|

e|------------------------------------------------------------|
B|--------00h-0----------------------------------------------|
G|-------2----------------------------------------------------|
D|--2----------0----------------------------------------------|
A|--0---0-----------------------------------------------------|
E|------------------------------------------------------------|



VERSE:
   Somebody told me you were leaving, I didn't know...
e|------------------------------0----|------------------------|
B|-----0----x------------------3-----|--------0-0h2-0---------|
G|----2-----x-----------------2------|-------2----------------|
D|---2------x----------------0-------|--2-----------0---------|
A|--0-------x------------------------|--0---0-----------------|
E|-----------------------------------|------------------------|
    A9                      D9          A9       D9

   Somebody told me you're unhappy, but it doesn't show...
e|------------------------------0--0-|------4--------2--------0-|
B|-----0----x------------------3-----|------5---x----2------0---|
G|----2-----x-----------------2------|------4---x----2----1-----|
D|---2------x----------------0-------|------6---x----4---0------|
A|--0-------x------------------------|------4---x---------------|
E|-----------------------------------|--------------------------|
    A9                      D9             C#m7     F#m

   Somebody told me that you don't want me no more... no...
e|------0---0-------2---------4----0-|--7-----2----------------|
B|-----3----------------------5------|--------3--------2^3-----|
G|----2-----------------------4------|--------2----------------|
D|---0------------------------6------|--------4----------------|
A|----------------------------4------|--------2------2---------|
E|-----------------------------------|-------------------------|
    D9                      C#m7              Bm7     F#m
    So you're walking out the door...
e|------0----------------------------|
B|-----0-----------------------------|
G|----1------------------------------|
D|---2-------------------------------|
A|--2--------------------------------|
E|-0---------------------------------|
   E

   Nobody told me you've been crying every night...
e|------------------------------0----|----------0------0---0---|
B|-----0----x------------------3-----|-----0---0--x---2---2--x-|
G|----2-----x-----------------2------|----2---2---x--2---2---x-|
D|---2------x----------------0-------|---2--------x----------x-|
A|--0-------x------------------------|--0---------x----------x-|
E|-----------------------------------|-------------------------|
    A9                      D9          A9       D9

   Nobody told me you'd been dying, but didn't want to fight...
e|------------------------------0--0-|------4--------2--------0-|
B|-----0----x------------------3-----|------5---x----2------0---|
G|----2-----x-----------------2------|------4---x----2----1-----|
D|---2------x----------------0-------|------6---x----4---0------|
A|--0-------x------------------------|------4---x---------------|
E|-----------------------------------|--------------------------|
    A9                      D9             C#m7     F#m

   Nobody told me you that you fell out of love for me,
e|------0------0-------2------4----0-|-------7------2----------|
B|-----3----------------------5------|--------------3----------|
G|----2-----------------------4------|--------------2----------|
D|---0------------------------6------|--------------4----------|
A|----------------------------4------|--------------2----------|
E|-----------------------------------|-------------------------|
    D9                      C#m7                   Bm7
    So I'm setting you free...
e|------0----------------------------|------0----------2------------|
B|-----0-----------------------------|---0-------------2------------|
G|----1------------------------------|-----------------2------------|
D|---2-------------------------------|-----------------4------------|
A|--2--------------------------------|---0--------------------------|
E|-0---------------------------------|------------------------------|
   E                                     A9           F#m


CHORUS:
  Let me be the one to break it up so you won't have to make excuses...
e|-------0------0-------------------|----0-------------------------0----0-|
B|---------------------------2--2---|--------------------2------0------2--|
G|-----------2------2---4-----------|-2-----2---4------------2--------2---|
D|-------0--------------------------|----------------2--------------------|
A|----------------------4-----------|-----------2---------------0---------|
E|----------------------------------|-------------------------------------|
         D9            C#m7                     Bm7             A9

We don't need to find a set-up where someone wins and someone loses...
e|-------------0--------------------|----0-------------------------0----0-|
B|---------------------------2--2---|--------------------2------0------2--|
G|----------2-------2---4-----------|-2---------4------------2--------2---|
D|-------0--------------------------|----------------2--------------------|
A|----------------------4-----------|-----------2---------------0---------|
E|----------------------------------|-------------------------------------|
         D9            C#m7                     Bm7             A9
We just have to say our love was true but is now become a lie...
e|-------------0--------------------|--------------2---------------------|
B|----------------------------------|-------------------2-3--------------|
G|----------2----2---------4--------|-----------2---------2--------------|
D|-------0---------------6-------2--|--------4------------4--------------|
A|---------------------4------------|---------------------2--------------|
E|----------------------------------|------------------------------------|
         D9            F                     F#m             Bm7

So I'm telling you I love you one last time...      And goodbye...
e|-------0-----------------------|---------------------0---|
B|----------------------2--------|-----3--------------0----|
G|-----2-----2------4------4--2--|----2--------------1-----|
D|--0----------------------------|---4--------------2------|
A|------------------4------------|--2--------------2-------|
E|-------------------------------|----------------0--------|
    D9              C#m7            Bm7           E


e|-------0---------------------|---------------------0---|
B|----------------------2------|-----0--------------0----|
G|-----2-----2------4----------|----0--0-----------1-----|
D|--0--------------------------|---2------2-------2------|
A|------------------4----------|--3--------------2-------|
E|-----------------------------|----------------0--------|
    D9              C#m7          C9            E

( e|--------12-12-12------------|---------------------2------ )
( B|--------------------12-14-12|10-------------------3------ )
( G|-----14----------14---------|------9--7-----------2------ )
( D|--12----------------11------|------0-----7---2----4------ )
( A|----------------------------|----------------0----2------ )
( E|----------------------------|---------------------------- )




VERSE 2
   Somebody told me you still love me, I don't know why...
e|---------------0--------------0--0-|2-0-------------0----0--|
B|-----0-----------------------3-----|--------0-x----2--------|
G|----2-----------------------2------|-------2--x---2---------|
D|---2-----------------------0-------|------2---x-------------|
A|--0--------------------------------|-----0----x-------------|
E|-----------------------------------|------------------------|
    A9                      D9          A9       D9

   Nobody told me that you only needed time to fly...
e|------------------------------0----|------4--------2--------0-|
B|-----0----x------------------3-----|------5---x----2------0---|
G|----2-----x-----------------2------|------4---x----2----1-----|
D|---2------x----------------0-------|------6---x----4----------|
A|--0-------x------------------------|------4---x-------2-------|
E|-----------------------------------|--------------------------|
    A9                      D9             C#m7     F#m

   Somebody told me that you want to come back when...
e|------0----------------0-----0---0-|-7---0--2-----------------|(3/9)
B|-----3--x-------------3-----2------|--------3--------2^3------|
G|----2---x------------2-----2-------|--------2-----------------|
D|---0----x-----------0-----0--------|--------4-----------------|
A|--------x--------------------------|--------2------2----------|
E|-----------------------------------|--------------------------|
    D9                      C#m7                   Bm7
    Our love is real again...
e|------0----------------------------|------0----------2------------|
B|-----0-----------------------------|---0-------------2------------|
G|----1------------------------------|-----------------2------------|
D|---2-------------------------------|-----------------4------------|
A|--2--------------------------------|---0--------------------------|
E|-0---------------------------------|------------------------------|
   E                                     A9           F#m


CHORUS:
  Let me be the one to break it up so you won't have to make excuses...
e|-------0------0-------------------|----0-------------------------0----0-|
B|---------------------------2--2---|--------------------2------0------2--|
G|-----------2------2---4-----------|-2-----2---4------------2--------2---|
D|-------0--------------------------|----------------2--------------------|
A|----------------------4-----------|-----------2---------------0---------|
E|----------------------------------|-------------------------------------|
         D9            C#m7                     Bm7             A9

We don't need to find a set-up where someone wins and someone loses...
e|-------------0--------------------|----0-------------------------0----0-|
B|---------------------------2--2---|--------------------2------0------2--|
G|----------2-------2---4-----------|-2---------4------------2--------2---|
D|-------0--------------------------|----------------2--------------------|
A|----------------------4-----------|-----------2---------------0---------|
E|----------------------------------|-------------------------------------|
         D9            C#m7                     Bm7             A9
We just have to say our love was true but is now become a lie...
e|-------------0--------------------|--------------2---------------------|
B|----------------------------------|-------------------2-3--------------|
G|----------2----2---------4--------|-----------2---------2--------------|
D|-------0---------------6-------2--|--------4------------4--------------|
A|---------------------4------------|---------------------2--------------|
E|----------------------------------|------------------------------------|
         D9            F                     F#m             Bm7

So I'm telling you I love you one last time...      And goodbye...
e|-------0-----------------------|------------------------------0---|
B|----------------------2--------|-----3-----------------------0----|
G|-----2-----2------4------4--2--|----2-----------------------1-----|
D|--0----------------------------|---4-----------------------2------|
A|------------------4------------|--2-----------------------2-------|
E|-------------------------------|-------------------------0--------|

BRIDGE:
      D9                      C#m7
Just turn around and then walk away...
                   Bm7
You don't have to live like this...no...no...
            E                   F#m
But if you love me still, then stay...
              E                 F#m  - E
Don't keep me waiting for that final kiss...
       F#m            E                          F#m              E
We can work together through this task or we can work through it apart...
        G                      Bm7                 D9               E
I just need to get this off my chest that you will always have my heart...
E
Let me be the one...

REPEAT CHORUS
AND INTRO


Note: hey friends kung gsto nyo makausap ang taong gumawa nito *ako lng n man
gumawa email nyo lng ako or txt nyo ko 09279108756........ hingi lng kayo sakin
ng kahit anong tabs......................





Comments


Popular Bondoc Jimmy tabs & chords
Let Me Be The One Chords
The Man I Was With You Chords
Akin Na Lang Sana Siya Tabs
Musikero (Intro) Tabs
The Man I Was With You (Intro) Tabs


Song lyrics



↑ Back to top | Tablatures and chords are parodies/interpretations of the original songs. You may use it for private study, scholarship, research or language learning purposes only
© 2014 AZChords.com Contact us | Privacy policy | DMCA | Add/correct tabs | Request tabs | Top 50 tabs