» » »

Bomb The Music Industry, The Last Party (Foul) Tabs (ver.1)

Artists:  A B C D E F G H I J K L M N O P Q R S T U V W X Y Z # 

The Last Party (Foul) Tabs (ver.1)

Bomb The Music Industry Tabs
 Rating:
4/5 (4 votes)
The Last Party (Foul) lessons Tabs too difficult? Try these video lessons and learn fast
1
                
     B  F# B  E     G#m F#
e:|--2--2--2--0--|--4---2--|-----------|
B:|--4--2--4--0--|--4---2--|-----------|
G:|--4--4--4--1--|--4---3--|--9-8-6-4--|  Play twice
D:|--4--4--4--2--|--6---4--|--9-9-6-4--|
A:|--2--3--2--2--|--6---4--|--7-6-4-2--|
E:|--2--2--2--0--|--4---2--|-----------|

     Ebm Abm C#m F#    B  F# E
e:|--6---4---4---2--|--2--2--0--|--------2--|--------2--|
B:|--7---4---5---2--|--4--2--0--|--------4--|--------4--|
G:|--8---4---6---3--|--4--3--1--|--9-8-6-4--|--9-8-6-4--|
D:|--8---6---6---4--|--4--4--2--|--9-9-6-4--|--9-8-6-4--|
A:|--6---6---4---4--|--2--4--2--|--7-6-4-2--|--7-6-4-2--|
E:|--6---4---4---2--|--2--2--0--|--------2--|--------2--|

     B  F# E
e:|--2--2--0--|--------2--|--------2--|
B:|--4--2--0--|--------4--|--------4--|
G:|--4--3--1--|--9-8-6-4--|--9-8-6-4--| Play twice
D:|--4--4--2--|--9-9-6-4--|--9-8-6-4--|
A:|--2--4--2--|--7-6-4-2--|--7-6-4-2--|
E:|--2--2--0--|--------2--|--------2--|
            
Submit corrections

comments powered by Disqus
↑ Back to top | Bomb The Music Industry Tabs for The Last Party (Foul). Lyrics for acoustic guitar and electric guitar. 1 Tablatures and chords are parodies/interpretations of the original songs. You may use it for private study, scholarship, research or language learning purposes only