» » »

Bomb The Music Industry, Stuff That I Like Tabs (ver.1)

Artists:  A B C D E F G H I J K L M N O P Q R S T U V W X Y Z # 

Stuff That I Like Tabs (ver.1)

Bomb The Music Industry Tabs
 Rating:
4/5 (4 votes)
Stuff That I Like lessons Tabs too difficult? Try these video lessons and learn fast
1
                			     Stuff That I Like- BTMI!

Tuning:Standard

I left out the end solo thing because i cant quite figure it out right now, ill probably 
it later. i know this isnt 100% right also, so if yo have any suggestions or 
just email them to me

e|--------------------------------------------------------------------------|
B|--------------------------------------------------------------------------|
G|---------------------------0------0----0----------------------------------|
D|---0-----0------0----------2------2----2----------------------------------|
A|---2-----2------2---3-5--3----3-3----3---3-5-3----------------------------|
E|-3---3-3------3---3-------------------------------------------------------|
PM *   * *      *   * * *  *    * *    *   * * *


e|-------------------5--3-3--5-5--3-3---------------------------------------|
B|-------------------3--3-3--3-3--3-3---------------------------------------|
G|-7--4-4--7-7--4-4--4--4-4--4-4--4-4----7~---------------------------------|
D|-5--5-5--5-5--5-5--5--5-5--5-5--5-5----5~---------------------------------|
A|-3--3-3--3-3--3-3--x--x-x--x-x--x-x----3~---------------------------------|
E|-------------------3--3-3--3-3--3-3---------------------------------------|

e|--------------------------------------------------------------------------|
B|--------------------------------------------------------------------------|
G|--------------------------------------------------------------------------|
D|-------------------------------------------2------------------------------|
A|-----2-3--3-3-3-2---2------------2-3-5-5-5---5-3--------------------------|
E|-3-5--------------5---3--3-3-3-5------------------3--3-3-3----------------|
PM * * * *  * * * * * * *  * * * * * * * * * * * *  *  * * *

*Upstrokes
e|-3-3-3-3-3-3-3-3--3-3-3-3-3-3-3-3-3--5-5-5-5-5-5-5-5--3-3-3-3-3-3-3-3-----|
B|-5-5-5-5-5-5-5-5--3-3-3-3-3-3-3-3-3--7-7-7-7-7-7-7-7--3-3-3-3-3-3-3-3-----|
G|-5-5-5-5-5-5-5-5--4-4-4-4-4-4-4-4-4--7-7-7-7-7-7-7-7--4-4-4-4-4-4-4-4-----|
D|-5-5-5-5-5-5-5-5--5-5-5-5-5-5-5-5-5--7-7-7-7-7-7-7-7--5-5-5-5-5-5-5-5-----|
A|-3-3-3-3-3-3-3-3--5-5-5-5-5-5-5-5-5--5-5-5-5-5-5-5-5--5-5-5-5-5-5-5-5-----|
E|------------------3-3-3-3-3-3-3-3-3-------------------3-3-3-3-3-3-3-3-----|

e|--------------------------------------------------------------------------|
B|--------------------------------------------------------------------------|
G|---------------------------------7--7-7--7-7--7-7-------------------------|
D|-----------------4-4-4-4-4-4-4-4-5--5-5--5-5--5-5-------------------------|
A|-5-5-5-5-5-5-5-5-2-2-2-2-2-2-2-2-3--3-3--3-3--3-3-------------------------|
E|-3-3-3-3-3-3-3-3----------------------------------------------------------|

e|---------------------------------------------------5--3-3--5-5--3-3-------|
B|---------------------------------------------------3--3-3--3-3--3-3-------|
G|---------------------------------7--7-7--7-7--7-7--4--4-4--4-4--4-4-------|
D|-----------------4-4-4-4-4-4-4-4-5--5-5--5-5--5-5--5--5-5--5-5--5-5-------|
A|-5-5-5-5-5-5-5-5-2-2-2-2-2-2-2-2-3--3-3--3-3--3-3--x--x-x--x-x--x-x-------|
E|-3-3-3-3-3-3-3-3-----------------------------------3--3-3--3-3--3-3-------|

e|-------------------5--3-3--5-5--3-3---------------------------------------|
B|-------------------3--3-3--3-3--3-3---------------------------------------|
G|-7--4-4--7-7--4-4--4--4-4--4-4--4-4----7~---------------------------------|
D|-5--5-5--5-5--5-5--5--5-5--5-5--5-5----5~---------------------------------|
A|-3--3-3--3-3--3-3--x--x-x--x-x--x-x----3~---------------------------------|
E|-------------------3--3-3--3-3--3-3---------------------------------------|

e|-----------------------------------------------------------------------------------------------|
B|-----------------------------------------------------------------------------------------------|
G|-----------------------------------------------------------------------------------------------|
D|---------44444444-55555555-77777777-99999999-1111111111111111-1212121212121212-1414141414141414|
A|55555555-22222222-33333333-55555555-77777777-9-9-9-9-9-9-9-9--1010101010101010-1212121212121212|
E|33333333---------------------------------------------------------------------------------------|

e|--------------------------------------------------------------------------|
B|--------------------------------------------------------------------------|
G|-1212121212121212-141414-1212-1111-1212121212121212-99-77-----------------|
D|-x-x-x-x-x-x-x-x--x-x-x--x-x--x-x--x-x-x-x-x-x-x-x--xx-xx-----------------|
A|-1010101010101010-121212-1010-9-9--1010101010101010-77-55-----------------|
E|--------------------------------------------------------------------------|

e|-----------------------------------------------------------------------------------------|
B|-----------------------------------------------------------------------------------------|
G|-1212121212121212-141414-1212-1111-12121212-14141414-1616161616161616-14141414-12121212--|
D|-x-x-x-x-x-x-x-x--x-x-x--x-x--x-x--x-x-x-x--x-x-x-x--x-x-x-x-x-x-x-x--x-x-x-x--x-x-x-x---|
A|-1010101010101010-121212-1010-9-9--10101010-12121212-1414141414141414-12121212-10101010--|
E|-----------------------------------------------------------------------------------------|

************************************

| /   slide up
| \   slide down
| h   hammer-on
| p   pull-off
| ~   vibrato
| +   harmonic
| x   Mute note
| b   Bend
| pb  Pre-bend
| br  Bend release
| pbr Pre-bend release
| brb Bend release bend

************************************
            
Submit corrections

comments powered by Disqus
↑ Back to top | Bomb The Music Industry Tabs for Stuff That I Like. Lyrics for acoustic guitar and electric guitar. 1 Tablatures and chords are parodies/interpretations of the original songs. You may use it for private study, scholarship, research or language learning purposes only