» » »

Bomb The Music Industry, Depression Is No Fun Tabs (ver.1)

Artists:  A B C D E F G H I J K L M N O P Q R S T U V W X Y Z # 

Depression Is No Fun Tabs (ver.1)

Bomb The Music Industry Tabs
Rating:
0/5 (0 votes)
Depression Is No Fun lessons Tabs too difficult? Try these video lessons and learn fast
                BTMI - Depression Is No Fun

This song uses horn section a lot, but it's fun to play on guitar too!

Intro (it's played on keyboard, but whatever)
E|-------------------------------------------------|
B|-------------------------------------------------|
G|-------------------------------------------------|
D|-------------------------------------------------|
A|------3-------3-------3-------3------------------|
E|--3-------3-------5-------3----------------------|

Verse A (upstroke)
E|--3---3---3---3-------3---3---2-2-3-5-2-2--------|
B|--3---5---3---5---5---5---5---3-4-5-5-3-4--------|
G|--4---5---4---5---6---5---4---2-4-4-6-2-4--------|
D|------------------7------------------------------|
A|-------------------------------------------------|
E|-------------------------------------------------|

Verse B
E|----------------------x3x3x3x3x3x3x3x3-----------|
B|----------------------x5x5x5x5x5x5x5x5-----------|
G|------------44444444--x4x4x4x4x4x4x4x4-44444444--|
D|-55555555---44444444-------------------44444444--|
A|-55555555---22222222-------------------22222222--|
E|-33333333----------------------------------------|

Riff in the middle ("running away")
E|-------------------------------------------------|
B|-------------------------------------------------|
G|-5---5---55-5---5-7-77---------------------------|
D|-5-5-5-5-55-5-5-5-7-77---------------------------|
A|-3-5-3-5-33-3-5-3-5-55---------------------------|
E|---3---3------3----------------------------------|

Play Verse A and Verse B again

Chorus
  2x                               3x
E|----------------|---------------|---------------|
B|----------------|---------------|---------------|
G|-5---5-7----4---|-5---5-7-------|-----7---------|
D|-5-5-5-7-5--4---|-5-5-5-7-5---3-|-7---7---5-----|
A|-3-5-3-5-5--2---|-3-5-3-5-5---1-|-7---5---5-----|
E|---3-----3------|---3-----3---1-|-5-------3-----|
            

comments powered by Disqus
↑ Back to top | Bomb The Music Industry Tabs for Depression Is No Fun. Lyrics for acoustic guitar and electric guitar. Tablatures and chords are parodies/interpretations of the original songs. You may use it for private study, scholarship, research or language learning purposes only