» » »

Bomb The Music Industry, Can I Pay My Rent In Fun? Tabs (ver.1)

Artists:  A B C D E F G H I J K L M N O P Q R S T U V W X Y Z # 

Can I Pay My Rent In Fun? Tabs (ver.1)

Bomb The Music Industry Tabs
Rating:
0/5 (0 votes)
Can I Pay My Rent In Fun? lessons Tabs too difficult? Try these video lessons and learn fast
                BTMI - Can I Pay My Rent In Fun?

This song has way too many tracks, so I just tabbed the chords to play and sing
along. The intro should be close to original though.

Intro
("organ" part)
E|----------------------------------------------------------|
B|-----------------------------5----------------------------|
G|-4---7-4-----------------------5-4---7-4------------------|
D|---------7-4---4-5-4---------------------7-4---4-5--------|
A|-------------5-------7-5-6-------------------5------------|
E|----------------------------------------------------------|

E|-3-3-33-----------------------------------------------------|
B|-3-3-33-----------------------------------------------------|
G|-4-4-44--11111112121212-12121212121212121212121111111141412-|
D|-5-5-55--xxxxxxxxxxxxxx-xxxxxxxxxxxxxxxxxxxxxxxxxxxxxxxxxxx-|
A|---------9-9-9-10101010-10101010101010101010109-9-9-9121210-|
E|------------------------------------------------------------|

E|--------------------------------------------------------------|
B|--------------------------------------------------------------|
G|-1414121914141616161616171414-16161414121211119-9-11119-9-7-7-|
D|-xxxxxxxxxxxxxxxxxxxxxxxxxxxx-xxxxxxxxxxxxxxxxxxxxxxxxxxxxxxx-|
A|-1212101712121414141414151212-1414121210109-9-7-7-9-9-7-7-5-5-|
E|--------------------------------------------------------------|

E|-----------------3-3-33---3-3-----------------------------|
B|-----------------3-3-33-33333-----------------------------|
G|-121211119-9-5-5-4-4-44-22224-----------------------------|
D|-xxxxxxxxxxxxxxx-5-5-55-00-05-----------------------------|
A|-10109-9-7-7-3-3------------------------------------------|
E|----------------------------------------------------------|

Verse 1

E|-3---2---3---2-3-3---2------------------------------------|
B|-3---3---5---4-5-3---3------------------------------------|
G|-4---2---4---4-5-4---2---17171616141412121717161614141919-|
D|-------------------------xxxxxxxxxxxxxxxxxxxxxxxxxxxxxxxx-|
A|-------------------------15151414121210101515141412121717-|
E|----------------------------------------------------------|

                           (bass or pm)
E|-3---2---3---2-3------------------------------------------|
B|-3---3---5---4-5------------------------------------------|
G|-4---2---4---4-5---4-5-8----------------------------------|
D|-----------------5-4-5-8----------------------------------|
A|-----------------5-2-3-6-----2-3-----2-3------------------|
E|-----------------3-------3-3-----3-3----------------------|

Chorus

E|----------------------------------------------------------|
B|----------------------------------------------------------|
G|---4-5-5---4-12121212121212121212121111111141412----------|
D|-5-4-5-5-5-4-xxxxxxxxxxxxxxxxxxxxxxxxxxxxxxxxxxx----------|
A|-5-2-3-3-5-2-10101010101010101010109-9-9-9121210----------|
E|-3-------3------------------------------------------------|

E|----------------------------------------------------------|
B|----------------------------------------------------------|
G|-14141219141416161616161714141212-------------------------|
D|-xxxxxxxxxxxxxxxxxxxxxxxxxxxxxxxx-------------------------|
A|-12121017121214141414141512121010-------------------------|
E|----------------------------------------------------------|

Verse 2

E|-3---2---3---2-3-3---2---------------------3h5p3-3h5p3-3h5p3-2--|
B|-3---3---5---4-5-3---3------------------------------------------|
G|-4---2---4---4-5-4---2---5-7-9-12-5-7-9-12----------------------|
D|----------------------------------------------------------------|
A|-------------------------3-5-7-10-3-5-7-10----------------------|
E|----------------------------------------------------------------|

                                   (bass or pm)
E|-3h5p3-3h5p3-3h5p3-2---3----------------------------------|
B|----------------------------------------------------------|
G|---------------------------4-5-8--------------------------|
D|-------------------------5-4-5-8--------------------------|
A|-------------------------5-2-3-6-----2-3-----2-3----------|
E|-------------------------3-------3-3-----3-3--------------|

Chorus 2
                       (silent part)
E|----------------------------------------------------------|
B|----------------------------------------------------------|
G|---4-5-5---4-5-5---4--------------------------------------|
D|-5-4-5-5-5-4-5-5-5-4-5------------------------------------|
A|-5-2-3-3-5-2-3-3-5-2-5------------------------------------|
E|-3-------3-------3---3------------------------------------|

E|-5----8---------------------------------------------------|
B|-5----8---------------------------------------------------|
G|-6----9------4-5-5---4-5-5---4-5---4-5-7------------------|
D|-7----10---5-4-5-5-5-4-5-5-5-4-5-7-4-5-7------------------|
A|-7----10---5-2-3-3-5-2-3-3-5-2-3-7-2-3-5------------------|
E|-5----8----3-------3-------3-----5------------------------|

                   (and so on)
E|--------------------------------------------------------------|
B|--------------------------------------------------------------|
G|-----4-4-----4-5--------------------------------4-4-5-5-5-----|
D|-5-5-4-4-5-5-4-5----------------------------5-5-4-4-5-5-5-----|
A|-5-5-2-2-5-5-2-3----------------------------5-5-2-2-3-3-3-----|
E|-3-3-----3-3--------------------------------3-3---------------|
            
Submit corrections

comments powered by Disqus
↑ Back to top | Bomb The Music Industry Tabs for Can I Pay My Rent In Fun?. Lyrics for acoustic guitar and electric guitar. Tablatures and chords are parodies/interpretations of the original songs. You may use it for private study, scholarship, research or language learning purposes only