» » »

All Ages Shows Tabs (ver.1)

Artists:  A B C D E F G H I J K L M N O P Q R S T U V W X Y Z # 

All Ages Shows Tabs (ver.1)

Bomb The Music Industry
Rating:
0/5 (0 votes)

Hard to play? Try these video lessons and learn fast.
                Standard TUNING.
I'm working on other Bomb the Music Industry songs at the moment, and if you like this 
rate.


INTRO
E----------------------------------------------------------------------------|
B----------------------------------------------------------------------------|
G----------------------------------------------------------------------------|
D-14-13--------------14-13----------------14-13------------------------------|
A-------14---s9-9-9--------14--s11-s9-s7--------14--s11-11-s10--14-16-14-s9--|
E----------------------------------------------------------------------------|


    D#   C#   B    C    C#   E    Em   B
E---6----4----7----3----4----7----7----7---|
B---8----6----7----5----6----9----8----7---|
G---8----6----8----5----6----9----9----8---|
D---8----6----9----5----6----9----9----9---|
A---6----4----9----3----4----7----7----9---|
E---6----4----7----3----4----7----7----7---|

ENDING
E----------------------------------------------------------------------------|
B----------------------------------------------------------------------------|
G----------------------------------------------------------------------------|
D-14-13--------------14-13----------------14-13------------------------------|
A-------14---s9-9-9--------14--s11-s9-s7--------14--s11-11-s10--14-16-18-14--|
E----------------------------------------------------------------------------|
            
Hard to play? Try these video lessons and learn fast. | Correct




comments powered by Disqus
↑ Back to top | Tablatures and chords are parodies/interpretations of the original songs. You may use it for private study, scholarship, research or language learning purposes only