» » »

Bombay Bicycle Club, Sixteen Tabs (ver.2)

Artists:  A B C D E F G H I J K L M N O P Q R S T U V W X Y Z # 

Sixteen Tabs (ver.2)

Bombay Bicycle Club Tabs
 Rating:
4/5 (4 votes)
Sixteen lessons Tabs too difficult? Try these video lessons and learn fast
                (Intro)
			   Sixteen - Bombay Bicycle Club

Tuning: Standard

e|-------------------------------------------|
B|-------------------------------------------|
G|---------16----18--------------------------|
D|--16/18-----18----18--16--14p13-14p13-9h13-|
A|-------------------------------------------|
E|-------------------------------------------|


e|-------------------------------------------|
B|-------------------------------------------|
G|---------16----18--------------------------|
D|--16/18-----18----18--16--14p13-14p13-9h13-|
A|-------------------------------------------|
E|-------------------------------------------|


e|-------------------------------------------|
B|-------------------------------------------|
G|---------16----18-20-----------------------|
D|--16/18-----18--------16--14p13-14p13-9h13-|
A|-------------------------------------------|
E|-------------------------------------------|

e|--------------------------------|
B|--------------------------------|
G|--------------------------------|
D|-11--11--11--11--11--11--11--11-|
A|--------------------------------|
E|--------------------------------|

e|-------------------------------------------|
B|-------------------------------------------|
G|---------16----18--------------------------|
D|--16/18-----18----18--16--14p13-14p13-9h13-|
A|-------------------------------------------|
E|-------------------------------------------|


e|-------------------------------------------|
B|-------------------------------------------|
G|---------16----18--------------------------|
D|--16/18-----18----18--16--14p13-14p13-9h13-|
A|-------------------------------------------|
E|-------------------------------------------|


e|-------------------------------------------|
B|-------------------------------------------|
G|---------16----18-20-----------------------|
D|--16/18-----18--------16--14p13-14p13-9h13-|
A|-------------------------------------------|
E|-------------------------------------------|

e|----------------------------------|
B|----------------------------------|
G|----------------------------------|
D|-11--11--11-13-11--11--11--11--11-|
A|----------------------------------|
E|----------------------------------|


| /  slide up
| \  slide down
| h  hammer-on
| p  pull-off
            
Submit corrections

comments powered by Disqus
↑ Back to top | Bombay Bicycle Club Tabs for Sixteen. Lyrics for acoustic guitar and electric guitar. Tablatures and chords are parodies/interpretations of the original songs. You may use it for private study, scholarship, research or language learning purposes only