» » »

Bombay Bicycle Club, Open House Bass tabs (ver.1)

Artists:  A B C D E F G H I J K L M N O P Q R S T U V W X Y Z # 

Open House Bass tabs (ver.1)

Bombay Bicycle Club Tabs
 Rating:
4/5 (4 votes)
Open House lessons Tabs too difficult? Try these video lessons and learn fast
                This is a great song by a great band that I saw live about a year ago. I hope you enjoy 
it. If there's any problems/suggestions just message me or comment.

KEY
~ - Let note ring
/ - Slide up

Guitar plays four bars and then:

Intro
G---------|---------|---------|---------|
D---------|---------|---------|---------|
A-5-5-5-5-|-5-5-5-5-|-5-5-5-5-|-5-5-5---| x2
E---------|---------|---------|-------5-|

Verse
There's no clear way to tab this out without confusing 1st time/2nd time bars so ive 
put the whole thing without repeats.

G---------|---------|---------|---------|---------|---------|
D-----5~--|---------|-----5~--|---------|-----5~--|---------|
A---------|-------5-|---------|-------5-|---------|-------5-|
E-3-------|---------|-3-------|---------|-3-------|---------|

G---------|---------|---------|---------|---------|---------|
D-----5~--|---------|---------|---------|---------|---------|
A---------|---------|-5-5-5-5-|-5-5-5-5-|-5-5-5-5-|-5-5-5---|
E-3-------|-5---7---|---------|---------|---------|-------5-|

G---------|---------|---------|---------|---------|---------|
D-----5~--|---------|-----5~--|---------|-----5~--|---------|
A---------|-------5-|---------|-------5-|---------|-------5/|
E-3-------|---------|-3-------|---------|-3-------|---------|

G-----------|-----------|---------|---------|---------|---------|
D-----------|-----------|---------|---------|---------|---------|
A-10---10---|-12---14---|-5-5-5-5-|-5-5-5-5-|-5-5-5-5-|-5-5-5---|
E-----------|-----------|---------|---------|---------|-------5-|

G---------|---------|---------|---------|
D---------|---------|---------|---------|
A-5-5-5-5-|-5-5-5-5-|-5-5-5-5-|-5-5-5---|
E---------|---------|---------|-------5-|

Chorus

G---------|---------|---------|---------|-------------|-------------|
D---------|---------|---------|---------|-------------|-------------|
A---------|---------|---------|---------|-12-12-12-12-|-12-12-12-12-|
E-5-5-5-5-|-5-5-5-5-|-5-5-5-5-|-5-5-5-5-|-------------|-------------|

G-------------|-------------|-------------|-------------|
D-------------|-------------|-------------|-------------|
A-12-12-12-12-|-12-12-12-12-|-10-10-10-10-|-10-10-10-10-|
E-------------|-------------|-------------|-------------|

G-------------|-------------|---------|---------|---------|
D-------------|-------------|---------|---------|---------|
A-10-10-10-10-|-10-10-10-10-|-7-7-7-7-|-7-7-7-7-|-7~------|
E-------------|-------------|---------|---------|---------|

Post-Chorus

G---------|---------|---------|---------|
D---------|---------|---------|---------|
A-5~------|---------|---------|---------|
E---------|---------|---------|---------|

G---------|---------|---------|---------|
D---------|---------|---------|---------|
A-5-5-5-5-|-5-5-5-5-|-5-5-5-5-|-5-5-5---| x2
E---------|---------|---------|-------5-|

It then goes
Verse
Chorus

After that its the bridge:

Bridge

G---------|---------|---------|---------|---------|---------|
D---------|---------|---------|---------|---------|---------|
A-5-5-5-5-|-5-5-5-5-|-5-5-5-5-|-5-5-5---|-5-5-5-5-|-5-5-5-5-|
E---------|---------|---------|-------5-|---------|---------|

G---------|---------|-------------|-------------|-------------|
D---------|---------|-------------|-------------|-------------|
A-5-5-5-5-|-7-7-9-9-|-10-10-10-10-|-10-10-10-10-|-10-10-10-10-|
E---------|---------|-------------|-------------|-------------|

G---------|---------|---------|---------|---------|---------|
D---------|---------|---------|---------|---------|---------|
A-5-5-----|---------|---------|---------|---------|-5-5-5-5-|
E-----5-5-|-3-3-3-3-|-3-3-3-3-|-3-3-3-3-|-5-5-7-7-|---------|

G---------|---------|---------|---------|---------|---------|
D---------|---------|---------|---------|---------|---------|
A-5-5-5-5-|-5-5-5-5-|-5-5-5-5-|-5-5-5---|-5-5-5-5-|-5-5-5-5-|
E---------|---------|---------|-------5-|---------|---------|

G---------|---------|-------------|-------------|-------------|
D---------|---------|-------------|----------12-|-------------|
A-5-5-5-5-|-7-7-9-9-|-10-10-10-10-|-10-10-10----|-10-10-10-10-|
E---------|---------|-------------|-------------|-------------|

G---------|---------|---------|---------|---------|---------|
D---------|---------|---------|---------|---------|---------|
A-5-5-----|---------|---------|---------|-----4-4-|-5-5-5-5-|
E-----5-5-|-3-3-3-3-|-3-3-3-3-|-3-3-5-5-|-7-7-----|---------|

G---------|---------|---------|---------|---------|---------|
D---------|---------|---------|---------|---------|---------|
A-5-5-5-5-|-5-5-5-5-|-5-5-5-5-|-5-5-5-5-|-5-5-5-5-|-5-5-5-5-|
E---------|---------|---------|---------|---------|---------|

G---------|---------|
D---------|---------|
A-5-5-5-5-|-5-PAUSE-|
E---------|---------|

Then:
Chorus
and Outro

Outro

G---------|---------|---------|---------|---------|---------|
D---------|---------|---------|---------|---------|---------|
A-5-5-5-5-|-5-5-5-5-|-5-5-5-5-|-5-5-5---|-5-5-5-5-|-5-5-5-5-|
E---------|---------|---------|-------5-|---------|---------|

G---------|---------||
D---------|---------||
A-5-5-5-5-|-5-5-5-5-||
E---------|---------||
            
Submit corrections

comments powered by Disqus
↑ Back to top | Bombay Bicycle Club Bass for Open House. Lyrics for acoustic guitar and electric guitar. Tablatures and chords are parodies/interpretations of the original songs. You may use it for private study, scholarship, research or language learning purposes only