» » »

Leaving Blues Tabs (ver.1)

Artists:  A B C D E F G H I J K L M N O P Q R S T U V W X Y Z # 

Leaving Blues Tabs (ver.1)

Bombay Bicycle Club
Rating:
0/5 (0 votes)

Hard to play? Try these video lessons and learn fast.
                Song title: Leaving blues

Tuning is standard on all instruments

Guitar 1 - Capo on 2nd Fret

h - Hammer on
p - Pull off
/ - Slide up
| - absolutely nothing, just splitting off chords and sections to make it 
    easier to read



INTRO/VERSE

Guitar 1
E---0-----2h0------|-----------------0-|
B---2---2-----3-2--|----3---3--3h2-3---|
G---2---2----------|----0---0----------|
D-------2----------|----2---2----------|
A--0--0------------|--2---2--------2---|
E------------------|-------------------|

Guitar 2
E-------------------------------------|
B-------------------------------------|
G-------------------------------------|
D-------------------------------------|
A----9----9----9---9----9---9---9---9-|
E-7----7----7---7-----9---9---9---9---|

CHORUS

Guitar 1
                                           
E|--------------2--------|-----2--------------3h2-------------|
B|---3-------------0--3--|-------3-----------3-----3----------|
G|---0-0------0----------|---------2---2----2---------2-------|
D|---0---0--0------------|---0-------0-----0------------0-----|
A|-----------------------|------------------------------------|
E|-3-------3-------------|------------------------------------|

|--0-----2h0-----|----------------0-|
|--2---2-----3-2-|---3---3--3h2-3---|
|--2---2---------|---0---0----------|
|------2---------|---2---2----------|
|-0--0-----------|-2---2--------2---|
|----------------|------------------|

Guitar 2
E|-------------------------------------|
B|-------------------------------------|
G|-------------------------------------|
D|-------------------------------------|
A|----7----7----7---7----7---7---7---7-|
E|-5----5----5---5-----7---7---7---7---|


POST CHORUS
same as intro/verse


VERSE 2
Bass comes in*
Guitars 1 & 2 play the same as the first verse

MIDDLE EIGHTH
Guitar 1

                                  E (add the 7th for a nicer sound)
E|------2--------|------0--------|-------0--------------0--------|
B|------3--3-----|------2--2-----|-------0--0-----------0--0-----|
G|---4--4----4---|---2--2----2---|----1--1----1------1--1----1---|
D|-------------4-|-------------2-|--------------2--------------2-|  x2
A|-2-------------|-0-------------|-2---------------2-------------|
E|---------------|---------------|-------------------------------|

                                                      
E|------2-------5-----2-------|---0-----2h0-----|-----------------0-|
B|--------3-------3-----3-----|---2---2-----3-2-|----3---3--3h2-3---|
G|----2-----2-------2---------|---2---2---------|----0---0----------|
D|--0---------0---------------|-------2---------|----2---2----------|
A|----------------------------|-0---0-----------|-2----2--------2---|
E|----------------------------|-----------------|-------------------|

OUTRO 
exactly the same as the verse/intro


This is my first tab, so thanks for taking a look!
Ryan Paterson
            
Hard to play? Try these video lessons and learn fast. | Correct




comments powered by Disqus
↑ Back to top | Tablatures and chords are parodies/interpretations of the original songs. You may use it for private study, scholarship, research or language learning purposes only