» » »

Evening Morning Tabs (ver.1)

Artists:  A B C D E F G H I J K L M N O P Q R S T U V W X Y Z # 

Evening Morning Tabs (ver.1)

Bombay Bicycle Club
Rating:
0/5 (0 votes)

Hard to play? Try these video lessons and learn fast.
                Here's the fresh tab from the fresh single from the fresh band called Bombay Bicycle Club.


Tuning : Standard



Intro :


GTR 1

e|---------------------------------------8h10--|
B|-----8----10p8----10p8----10p8----8h10-------|
G|--10---10------10------10------10------------|
D|---------------------------------------------|
A|---------------------------------------------|
E|---------------------------------------------|  

                                             
e|---------------------------------------8-----|
B|-----8----10p8----11p8----11p8----8h11---11--|
G|--10---10------10------10------10------------|
D|---------------------------------------------|
A|---------------------------------------------|
E|---------------------------------------------|        = 4x =




GTR 2

e|----------------------------------------------|
B|----------------------------------------------|
G|--12-12--12-12--12-12--12-12---12-12-12-------|
D|--12-12--12-12--12-12--12-12---12-12-12-------|
A|-(10-10--10-10--10-10--10-10---10-10-10)------|
E|----------------------------------------------|


e|----------------------------------------------|
B|----------------------------------------------|
G|--5-5----5-5----5-5----5-5------5-5-5---------|
D|--5-5----5-5----5-5----5-5------5-5-5---------|
A|-(3-3----3-3----3-3----3-3------3-3-3)--------|
E|----------------------------------------------|       = 4x =


(not sure about the 2nd gtr)



AFTER THE BASS "solo" ->


GTR 1

e|--------------------------------------------------|
B|--------------------------------------------------|
G|--12-12-10-10-12-12------12-12-10-10-12-12--------|
D|--------------------8-8--------------------10-10--|
A|--------------------------------------------------|
E|--------------------------------------------------|   = 4x =



GTR 2

e|------------------------------------|
B|------------------------------------|
G|------------------------------3-5---|
D|----------------------------5-------|
A|--6-6-6-6-6-8-6-8-3-3-3-3-3---------|
E|------------------------------------|   = 4x =





"I am ready to owe you anything" 

GTR 2

e|--6-6-6-6--6---3-3-3-3--3--|
B|--6-6-6-6--6---3-3-3-3--3--|
G|---------------------------|
D|---------------------------|
A|---------------------------|
E|---------------------------|   =8x=


GTR 1 (!) Comes after guitar 2 (listen to the song to catch the good tempo)

e|--------------------------------------------------|
B|--------------------------------------------------|
G|--12-12-10-10-12-12------12-12-10-10-12-12--------|
D|--------------------8-8--------------------10-10--|
A|--------------------------------------------------|
E|--------------------------------------------------|   = 4x =


"We can't, we can't, we can't" ->

GTR 1

e|---------------------------------------8h10--|
B|-----8----10p8----10p8----10p8----8h10-------|
G|--10---10------10------10------10------------|
D|---------------------------------------------|
A|---------------------------------------------|
E|---------------------------------------------|  

                                             
e|---------------------------------------8-----|
B|-----8----10p8----11p8----11p8----8h11---11--|
G|--10---10------10------10------10------------|
D|---------------------------------------------|
A|---------------------------------------------|
E|---------------------------------------------|    = 4x =


(!) variation at the last turn : 


e|---------------------------------------------|
B|-----8----10p8----11p8----11p8----11p8-------|
G|--10---10------10------10------10------10----|
D|---------------------------------------------|
A|---------------------------------------------|
E|---------------------------------------------|



GTR 2

e|----------------------------------------------|
B|----------------------------------------------|
G|--12-12--12-12--12-12--12-12---12-12-12-------|
D|--12-12--12-12--12-12--12-12---12-12-12-------|
A|-(10-10--10-10--10-10--10-10---10-10-10)------|
E|----------------------------------------------|


e|----------------------------------------------|
B|----------------------------------------------|
G|--5-5----5-5----5-5----5-5------5-5-5---------|
D|--5-5----5-5----5-5----5-5------5-5-5---------|
A|-(3-3----3-3----3-3----3-3------3-3-3)--------|
E|----------------------------------------------|       = 4x =




AFTER THE BASS "SOLO" ->

Verse 2 (Keep with me ...)


GTR 2

e|------------------------------------|
B|------------------------------------|
G|------------------------------3-5---|
D|----------------------------5-------|
A|--6-6-6-6-6-8-6-8-3-3-3-3-3---------|
E|------------------------------------|   = 4x =
 


"I AM READY TO"


GTR 2

e|--6-6-6-6--6---3-3-3-3--3--|
B|--6-6-6-6--6---3-3-3-3--3--|
G|---------------------------|
D|---------------------------|
A|---------------------------|
E|---------------------------|   =8x=


GTR 1 (!) Comes after guitar 2 (listen to the song to catch the good tempo)

e|--------------------------------------------------|
B|--------------------------------------------------|
G|--12-12-10-10-12-12------12-12-10-10-12-12--------|
D|--------------------8-8--------------------10-10--|
A|--------------------------------------------------|
E|--------------------------------------------------|   = 4x =


"And I'm ready to owe you anything,
I'm ready to owe you anything,
I'm ready to owe you anything,
I'm ready to owe you anything."



GTR 2

e|------------------------------------|
B|------------------------------------|
G|------------------------------3-5---|
D|----------------------------5-------|
A|--6-6-6-6-6-8-6-8-3-3-3-3-3---------|
E|------------------------------------|   = 4x =
            
Hard to play? Try these video lessons and learn fast. | Correct




comments powered by Disqus
↑ Back to top | Tablatures and chords are parodies/interpretations of the original songs. You may use it for private study, scholarship, research or language learning purposes only